Inventor dos Amores

Jorge e Mateus

 Jorge e Mateus
Tom: F
		
(intro) Gm  Bb5(9) F  C5(9)

(solo da intro)
(parte 1)

e|-------5-6-------5-6----------8-10-----------------|
B|-8-8-8-----8-8-8-----11-11-11----------------------|
G|---------------------------------------------------|
D|---------------------------------------------------|
A|---------------------------------------------------|
E|---------------------------------------------------|


(parte 2)

e|----10-10-10-8--6-6/8---6/8--8--8--6-5-----8-------|
B|-11-11-11-11-10-8-8/10--8/10-10-10-8-6-------------|
G|---------------------------------------7/9---------|
D|---------------------------------------------------|
A|---------------------------------------------------|
E|---------------------------------------------------|


(parte 3)

e|-----6p5-------------------------------------------|
B|---------8-6-6/8~----------------------------------|
G|-5/7-----------------------------------------------|
D|---------------------------------------------------|
A|---------------------------------------------------|
E|---------------------------------------------------|


(primeira parte)
Gm
  Eu já não sei mais o que faço com meu coração
Bb5(9)
  Eu não tenho mais o controle da situação
F                                         C5(9)
  Todo caminho que eu sigo me leva a você...

Gm
  E quanto mais tento fugir  eu me aproximo mais
Bb5(9)
  Não tem mais jeito  já se foi  razão ficou pra trás
F                                            C5(9)
  Eu já não sigo meus instintos  medo de sofrer...

(segunda parte)
Gm                               F/A    Bb5(9)
  E se eu me entregar  será que vai rolar?
                                        F    C5(9)
Sou um doente  apaixonado  e ela tem razão...ão
Gm                                F/A    Bb5(9)
  Se for pra ser assim eu vou cuidar de mim
                                     C5(9)
Eu penso em desistir  e ela diz que não..

(refrão)
F
  Meu coração apaixonado atormentado em dores
C5(9)                             Bb5(9)  F
  Procura entre os outros o inventor dos amores
Gm                    Dm                 C5(9)    Bb5(9) C5(9)
  Espero que essa paixão nunca me deixe mal
F
  Eu quero te amar e também quero ser amado
C5(9)                        Bb5(9)    A5
  Desejo ser o seu amor  e não o seu escravo
Gm                    Dm                    C5(9)
  Espero que essa paixão não tenha ponto final
        Bb5(9)  C5(9)          F
  Se não  Adeus   tchau  tchau.

(repete intro)

(Jorge e Mateus)
(repetir a segunda parte)
Gm                               F/A    Bb5(9)
  E se eu me entregar  será que vai rolar?
                                        F    C5(9)
Sou um doente  apaixonado  e ela tem razão...ão
Gm                                F/A    Bb5(9)
  Se for pra ser assim eu vou cuidar de mim
                                     C5(9)
Eu penso em desistir  e ela diz que não..

(refrão)

(final) F  Bb5(9) C5(9) F
335.565 exibições

Comentários 6

  • rara rara: Postado em 13/02/2014 15:52

    Top !

  • willerbelo willerbelo: Postado em 25/09/2011 10:06

    Essa música é 1000, faz parte da minha vida.

  • lovenatica lovenatica: Postado em 04/08/2011 22:24

    quem ta onn ?

  • lovenatica lovenatica: Postado em 04/08/2011 22:22

    Oi gente tudo bom me desejem sorte vou cantar amanhã !

  • rafael rafael: Postado em 17/02/2011 19:12

    Muito Massaaaa essa Musica.......

    D+++++

    • eskilynha eskilynha: Postado em 21/03/2011 18:02

      muuuuuuuuuito mesmoooooooo!!!!!!!!!!!!!!!!!!!!!!!!!!!!!!!!!!!!!!!!!!!!!!!!uhuuuuuuuuuuuuuuuuuuuuuuuuuuuuuuuuuuuuuuu!!!!!!!!!!!!!!!!!!!!!!!!!

Composição: Sabe quem é o compositor? Envie pra gente. Contribuição: BrunAlenNoleto Correções: DJB e mais 1 »
Exibir acordes »
publicidade
fechar