Mil Anos

Jorge e Mateus

 Jorge e Mateus
Tom: C
		
(intro)

(parte 1)

E|------------------------------------|
B|------------------------------------|
G|--5---------5---5-7-5---------------|
D|----7-7-------7-------7-7---5-5h7~--|
A|------------------------------------|
E|------------------------------------|


(parte 2)

E|------------------------------------|
B|------------------------------------|
G|------------------------------------|
D|---5-5------------------5-----------|
A|-3----------5-5-----5/7---7-5-0-----|
E|----------3-------------------------|


Am                               F
Você fala demais, diz muitas besteiras da boca pra fora
      C                         G                      Am   F
Mas sei que se arrepende por jogar o que não era lixo fora

       C               G             Am              F
Você briga, me ignora, pisa na bola, sente saudades chora
 Dm                        F                G
Diz que é de raiva pra não assumir que me adora
     C                              G
Eu sei que um grande amor não é facil de se encontrar
 Am                         F
Mais difícil ainda é deixar de gostar
      Dm                   F                      G
Se o clima ta pesado não existe pecado que não se possa perdoar
     C                       G
Vai ver a gente nao conhece o amor direito
   Am                        F           Dm            Bb
Prazer eu sou um cara cheio de defeitos igualzinho aquele
               G
Que você aprendeu a amar

(refrão)
             F                   G                           Am         (riff 1)
Mesmo que o Sol se apague vem a Lua te trazer de volta aos sonhos meus
         F                 G                             Am             (riff 2)
Pode passar mil anos você vai me amar e eu vou ser pra sempre seu
             F                   G                           Am         (riff 3)
Mesmo que o Sol se apague vem a Lua te trazer de volta aos sonhos meus
         F                 G                            Am
Pode passar mil anos você vai me amar e eu vou ser pra sempre seu

(riff 1)

E|--7/8-8-8-7-7-7-5-5-5~---------|
B|-------------------------------|
G|-------------------------------|
D|-------------------------------|
A|-------------------------------|
E|-------------------------------|


(riff 2)

E|-------------------------------|
B|-8/10-10-10-12-12-12-13-13-13~-|
G|-------------------------------|
D|-------------------------------|
A|-------------------------------|
E|-------------------------------|


(riff 3)

E|--10/12-12-12-10-10-10-8-8-8~--|
B|-------------------------------|
G|-------------------------------|
D|-------------------------------|
A|-------------------------------|
E|-------------------------------|


(solo)

E|--8---------8----8----8-10--12r10-8-15-12~---------
B|----10-10~----10---10------------------------------
G|---------------------------------------------------
D|---------------------------------------------------
A|---------------------------------------------------
E|---------------------------------------------------



E|---------------------------------------------------
B|---------------------------------------------8-----
G|-----------------------------5---5-7-5-7-7/9-------
D|-----------------5---5-7-5-7---7-------------------
A|-----5---5-7-5-7---7-------------------------------
E|-5-8---8-------------------------------------------



E|---------------------------------------------------
B|---------------------------------------------------
G|-9\7-5-------5-------------------------------------
D|-------7-5-7---7-7---------------------------------
A|---------------------------------------------------
E|---------------------------------------------------


       C               G             Am              F
Você briga, me ignora, pisa na bola, sente saudades chora
 Dm                        F                G
Diz que é de raiva pra não assumir que me adora
     C                                 G
Eu sei que um grande amor não é facil de se encontrar
 Am                         F
Mais difícil ainda é deixar de gostar
      Dm                   F                      G
Se o clima ta pesado não existe pecado que não se possa perdoar
     C                       G
Vai ver a gente nao conhece o amor direito
   Am                        F           Dm            Bb
Prazer eu sou um cara cheio de defeitos igualzinho aquele
               G
Que você aprendeu a amar

(refrão)
             F                   G                           Am         (riff 1)
Mesmo que o Sol se apague vem a Lua te trazer de volta aos sonhos meus
         F                 G                             Am             (riff 2)
Pode passar mil anos você vai me amar e eu vou ser pra sempre seu
             F                   G                           Am         (riff 3)
Mesmo que o Aol se apague vem a Lua te trazer de volta aos sonhos meus
         F                 G                             Am             (riff 4)
Pode passar mil anos você vai me amar e eu vou ser pra sempre seu


E|-------12--------10--5---------------------------|
B|----13--------12-----5---------------------------|
G|-14--------12--------5---------------------------|
D|-------------------------------------------------|
A|-------------------------------------------------|
E|-------------------------------------------------|

Comentários 50

  • maia maia: Postado em 30/08/2014 22:39

    essa música é muito boa, obrigado

  • hugo.goncalves.5815 hugo.goncalves.5815: Postado em 19/07/2014 14:32

    muito boa

  • Julio Julio: Postado em 15/07/2014 16:49

    facil daora

  • Lucas Lucas: Postado em 25/01/2014 16:02

    muito boa e facil

  • lucas.inacio.330 lucas.inacio.330: Postado em 22/01/2014 09:04

    Eu gostei muito da musica mais seria bom mesmo conhecer vcs ai do cifraclub

  • Karla Karla: Postado em 16/01/2014 22:55

    muito boa a musica só q só fica certinho se vc tocar em dupla. :(

  • Karoline Karoline: Postado em 14/11/2013 17:48

    Peguei o solo, mais só falta aumentar a velocidade....

  • esterlopes esterlopes: Postado em 09/05/2013 22:24

    muito linda

  • tantim tantim: Postado em 17/12/2012 09:50

    é muito bowa mesmo essa musica. so falta eu aprender ela toda.

    • Lucas Lucas : Postado em 25/09/2013 22:42

      é nois

Exibindo 10 de 50 comentários Mostrar mais ver todos »
Composição: Sabe quem é o compositor? Envie pra gente. Contribuição: Robleto Lafaiety Correções: lukinhas , Cézzare e mais 6 »
Exibir acordes »
publicidade
fechar