Volta Pra Minha Vida

Jorge e Mateus

 Jorge e Mateus
Tom: B
		
Solo: E  F#  G#m

      E  F#  G#m  F#
E|----6h7-6--------------4/7-4-7/11-7--9-11------|
B|--------------4--7/9-7-------------------------|
G|----------4-6----------------------------------|
D|-----------------------------------------------|
A|-----------------------------------------------|
E|-----------------------------------------------|



E|----6h7-6--------------4/7-4-7/11--------------|
B|--------------4--7/9-7------------9--9-7-------|
G|----------4-6----------------------------------|
D|-----------------------------------------------|
A|-----------------------------------------------|
E|-----------------------------------------------|


B
Quantas vezes a gente ama
G#m
E percebe que só se engana
E                              F#
Mas pela primeira vez, eu não me enganei
G#m
Hoje tudo parece um sonho
E                            C#m
Mais você teve medo de acreditar
         E          F#
E se enganar outra vez
     C#m             G#m
Esse medo te levou embora
             E               B
Mais não há nada pra você lá fora
      C#m               G#m
Esse amor não vai te deixar
            E               F#
E você vai ver, vai acreditar...

Refrão 2x:
B              F#               C#m
Um amor de verdade não tem despedida
E                B
Volta pra minha vida
            F#            C#m
Deixa esse medo e venha o que vier
        E         F#       B
Eu não vou desgrudar de você.


Solo 2x: E  F#  G#m
E|----6h7-6--------------4/7-4-7/11-7--9-11------|
B|--------------4--7/9-7-------------------------|
G|----------4-6----------------------------------|
D|-----------------------------------------------|
A|-----------------------------------------------|
E|-----------------------------------------------|



E|----6h7-6--------------4/7-4-7/11-7-7-7-7-7----|
B|--------------4--7/9-7-------------------------|
G|----------4-6----------------------------------|
D|-----------------------------------------------|
A|-----------------------------------------------|
E|-----------------------------------------------|


     C#m             G#m
Esse medo te levou embora
             E               B
Mais não há nada pra você lá fora
      C#m               G#m
Esse amor não vai te deixar
            E               F#
E você vai ver, vai acreditar...

Refrão 2x:
B              F#               C#m
Um amor de verdade não tem despedida
E                B
Volta pra minha vida
            F#            C#m
Deixa esse medo e venha o que vier
        E         F#       B   F#
Eu não vou desgrudar de você.

E|-----------------------------------------------|
B|-------7------7--------------------------------|
G|---6/8----6/8---8-8-6-6------------------------|
D|---------------------------8/9-----------------|
A|------------------------9----------------------|
E|-----------------------------------------------|


B              F#               C#m
Um amor de verdade não tem despedida
E                B
Volta pra minha vida
            F#            C#m
Deixa esse medo e venha o que vier
        E         F#       B   ( F#  C#m )
Eu não vou desgrudar de você.
        E                  B   ( F#  C#m )
Eu não vou desgrudar de você.
        E         F#       B
Eu não vou desgrudar de você.
132.450 exibições

Comentários 1

  • Antonio Antonio: Postado em 05/07/2013 19:25

    "Mais não há nada pra você lá fora" ta errado, é "MAS".

Composição: Sabe quem é o compositor? Envie pra gente. Contribuição: Wetto_Gomes Correções: Bruno , gordo e mais 8 »
Exibir acordes »
publicidade
fechar