Tom: A
		
Intro: A  D  Bm  E  A  D  Bm  E

Solo intro:


E|-------------9h10p9--------------------------|-------0-------------------
B|----9/10--10--------10---10-10p9-9/7-7/5-5-5-|-----0---3----3p2h3-3/5-5--
G|--9------------------------------------------|-1-2-------1---------------
D|---------------------------------------------|---------------------------
A|---------------------------------------------|---------------------------
E|---------------------------------------------|---------------------------



    A                 D
O deserto que atravessei
Bm                 E
Ninguem me viu passar
            A
Estranho e só
     D
Nem pude ver
Bm              E
Que o céu é maior
           D            A
Tentei dizer, mas vi você
                E
Tão longe de chegar,
D                     A   E7
mas perto de algum lugar
     A             D
É deserto onde eu te encontrei
Bm              E
Você me viu passar
        A       D
Correndo só, nem pude ver
Bm                E
Que o tempo é maior
           D            A
Olhei pra mim, me vi assim
                 E  D
Tão perto de chegar  onde
           A
Você não está
E               A
No silêncio uma catedral
E             A
Um templo em mim
E              A
Onde possa ser imortal
     D
Mas vai existir eu sei vai
Bm
Ter que existir
E                    E4/7
Vai resistir nosso lugar
     A      D
Solidão que pode evitar
Bm            E
Te encontro enfim
          A      D
Meu coração, é secular
Bm              E
Sonha e deságua dentro de mim
    D      Bm         E
Amanhã devagar me diz como

Voltar

(Solo 1º intervalo)

"É deserto onde te encontrei..."

(Solo 2º intervalo)

        A
Se eu disser
         D
Que foi por amor
Bm
Não vou mentir
    E
Pra mim
         A
Se eu disser
       D
Deixa pra depois
Bm                E
Não foi sempre assim
          D
Tentei dizer
         A
Mas vi você
                 E    D
Tão longe de chegar,  mas perto
            A
de algum lugar


Solo do 1º intervalo:


E|--12-10-9-----------------9-10-12p10h12---10-9---------------------
B|----------12-10-10--10-12----------------------10------------------
G|--------------------------------------------------9/7-7/6-6/4/2----
D|-------------------------------------------------------------------
A|-------------------------------------------------------------------
E|-------------------------------------------------------------------



E|-------------------------------9-10-12-12/14--14-14-14-12-10/9---------9-9h10-----
B|-----------------------9-10-12---------------------------------12-10/9--------12--
G|----------------7-9-11------------------------------------------------------------
D|---------7-9-11-------------------------------------------------------------------
A|--7-9-11--------------------------------------------------------------------------
E|----------------------------------------------------------------------------------



Solo do 2º intervalo:

E|------------------------------------0-2-4/5-4-2-0----------------------------------
B|--------2-3/5-5-5-3-2-2h3p2-0-0-2-3---------------3-2-0----------------------------
G|--2-2-4-------------------------------------------------2--------------------------
D|-----------------------------------------------------------------------------------
A|-----------------------------------------------------------------------------------
E|-----------------------------------------------------------------------------------



E|--------------------------------------9-10-12-12/14--14-14-14-12-10/9------------------------9-9h10-----
B|------------------------------9-10-12---------------------------------12-10/9---------9-9h10--------12--
G|-----------------------7-9-11-------------------------------------------------11-9-11-------------------
D|---------7-9-11-7-9-11----------------------------------------------------------------------------------
A|--7-9-11------------------------------------------------------------------------------------------------
E|--------------------------------------------------------------------------------------------------------
373.625 exibições

Comentários 4

  • jorge.gomes.5494 jorge.gomes.5494: Postado em 31/01/2014 21:36

    quais as batidas da música?

  • mathiasbenitez mathiasbenitez: Postado em 24/07/2012 20:53

    alguem pode dizer um ritmo ideal ??

  • theusq theusq: Postado em 16/11/2011 21:34

    quero os arranjos da introdução D:

  • rodriguinhool rodriguinhool: Postado em 10/08/2011 13:32

    grande leandro,.... pena q morreu tão cedo

Composição: Tanita Takaran
Esse não é o compositor? Avise-nos.
Contribuição: Trucker Correções: HelisonZürc , Reivan e mais 2 »
Exibir acordes »
publicidade
fechar