Led Zeppelin

Stairway To Heaven

2.412.196 exibições
Tom: C
Intro:

Primeiro Parte da Intro 2x:


      Am       E13-/G#   C/G      D/F#
E|-------5--7-----7--8-----8--2-----2-------|
B|-----5------5--------5--------3-----------|
G|---5----------5--------5--------2---------|
D|-7--------6--------5--------4-------------|
A|------------------------------------------|
E|------------------------------------------|


      F7M           G/B  Am
E|-0-------0--------------------------------|
B|---1---1---1----0---1--1------------------|
G|-----2-------2--0---2--2------------------|
D|-3--------------0---2--2------------------|
A|----------------2---0--0--0-2/8-7---------|
E|------------------------------------------|


      Am       E13-/G#   C/G      D/F#
E|----------7-----7--8-----8--2-----2-------|
B|-------5----5--------5--------3-----------|
G|-----5--------5--------5--------2---------|
D|---7------6--------5--------4-------------|
A|-0----------------------------------------|
E|------------------------------------------|


      F7M           G/B  Am
E|-0-------0--------------------------------|
B|---1---1---1----0---1---1-----------------|
G|-----2-------2--0---2---2-----------------|
D|-3--------------0---2---2-----------------|
A|----------------2---0---0-----------------|
E|------------------------------------------|


Segunda Parte da Intro:


      C            D        F7M      Am
E|-----------0--2-----2--0-----0------------|
B|----------------3--------1------0h1-------|
G|---------0--------2--------2--------2-----|
D|-------2------0--------3------------------|
A|-0-2-3--------------------------0---------|
E|------------------------------------------|


     C             G        D4  D
E|--------------3-----3--3p2-2-2------------|
B|-----1-----1----0------3---3-3------------|
G|-------0----------0----2---2-2------------|
D|---------2-------------0-----0------------|
A|-0-2-3------------------------------------|
E|--------------3---------------------------|


      C            D        F7M      Am
E|--------------2-----2--0-----0------------|
B|-----------1----3--------1------0h1-------|
G|---------0--------2--------2--------2-----|
D|-------2------0--------3------------------|
A|-0-2-3--------------------------0---------|
E|------------------------------------------|


      C            D        F7M
E|--------------------2--0-0-0--------------|
B|-----------1------3----1-1-1--------------|
G|---------0------2------2-2-2--------------|
D|-------2------0--------3-3-3--------------|
A|-0-2-3------------------------------------|
E|------------------------------------------|



Primeira Parte:

           Am         E13-/G#
There's a lady who's sure
           C/G        D/F#
All that glitters is gold
           F7M                    G/B  Am
And she's buying the stairway to hea__ven

          Am              E13-/G#
When she gets there she knows
         C/G            D/F#
If the stores are all closed
        F7M                       G/B  Am
With a word she can get what she came for


Segunda Parte:

C   D   F7M  Am
  Uuuhh...
           C         G          D4   D
And she's buying a stairway to hea__ven
           C           D
There's a sign on the wall
         F7M         Am
But she wants to be sure
             C             D              F7M
'Cause you know sometimes words have two meanings


Primeira Parte - variação na letra:

       Am          E13-/G#
In a tree by the brook
           C/G          D/F#
There's a songbird who sings
          F7M                         G/B  Am
Sometimes all of our thoughts are misgi___ven

( Am  E5+/G#  C/G  D/F#  F7M  G/B  Am  G/B )


      Am       E13-/G#
E|-------5--7-------7-----------------------|
B|------------5---5---5---------------------|
G|-----5--------5-------5-------------------|
D|---7------6-------------6-----------------|
A|-0----------------------------------------|
E|------------------------------------------|


      C/G           D/F#
E|-------8--------------2-------------------|
B|-----8---8----------3---3-----------------|
G|---8-------8------2-------2---------------|
D|-5-----------5--4-----------4-------------|
A|------------------------------------------|
E|------------------------------------------|


      F7M                        G/B  Am   G/B
E|-------0-------------0--------------------|
B|-----1---1---------1---1-----0---1--1--3--|
G|---2-------2-----2-------2---0---2--2--0--|
D|-3-----------3-3-----------3-0---2--2--0--|
A|-----------------------------2---0--0--2--|
E|------------------------------------------|



Terceira Parte:

Am7  D5(9)  D                Am7   D5(9)  D  D4  D
            Oh, it makes me wonder
Am7  D5(9)  D
Oh,           it makes me wonder

( Am7  D5(9)  D  D4  D )


Quarta Parte:

(Violão)

        C       G/B      Am
E|------------------------------------------|
B|---------1-------3--0h1---------1---------|
G|-------0-------0--------2-----2-----------|
D|-----2-------0--------------2-------------|
A|-0-3-------2--------0-----0---------------|
E|------------------------------------------|


          C             F7M   Am
E|--------------------0----0----------------|
B|-----------1--------1----1----------------|
G|---------0-------0--2----2----------------|
D|-------2-------0----2----2----------------|
A|-0-2-3-------2-----------0----------------|
E|--------------------1---------------------|


          C       G/B      Am
E|------------------------------------------|
B|-----------1-------3--0h1---------1-------|
G|---------0-------0--------2-----2---------|
D|-------2-------0--------------2-----------|
A|-0-2-3-------2--------0-----0-------------|
E|------------------------------------------|


          C             F7M   Am
E|--------------------0----0----------------|
B|-----------1--------1----1----------------|
G|---------0-------0--2----2----------------|
D|-------2-------0----2----2----------------|
A|-0-2-3-------2-----------0----------------|
E|--------------------1---------------------|


          C       G/B
E|------------------------------------------|
B|-----------1-------0----------------------|
G|---------0-------0------------------------|
D|-------2-------0--------------------------|
A|-0-2-3-------2----------------------------|
E|------------------------------------------|


(Guitarra 1)

      C       G/B       Am
E|------------------------------------------|
B|-------1-------3-0h1---------1------------|
G|-----0-------0-------2-----2--------------|
D|---2-------0-------------2----------------|
A|-3-------2-------------0-------0-2--------|
E|------------------------------------------|


      C       G/B   F7M
E|--------------------0---------------------|
B|-------1-------1----1---------------------|
G|-----0-------0-2----2---------------------|
D|---2-------0---2----2---------------------|
A|-3-------2----------0----------0-2--------|
E|---------------1--------------------------|


      C       G/B       Am
E|------------------------------------------|
B|-------1-------3-0h1---------1------------|
G|-----0-------0-------2-----2--------------|
D|---2-------0-------------2----------------|
A|-3-------2-------------0-------0-2--------|
E|------------------------------------------|


      C       G/B   F7M
E|--------------------0---------------------|
B|-------1-------1----1---------------------|
G|-----0-------0-2----2---------------------|
D|---2-------0---2----2---------------------|
A|-3-------2----------0----------0-2--------|
E|---------------1--------------------------|


      C       G/B
E|------------------------------------------|
B|-------1-------0--------------------------|
G|-----0-------0----------------------------|
D|---2-------0------------------------------|
A|-3-------2--------------------------------|
E|------------------------------------------|


(Guitarra 2 - final)

      C       G/B
E|------------------------------------------|
B|-----------1-------0----------------------|
G|---------0-------0---2--------------------|
D|-------2-------0--------------------------|
A|-0-2-3-------2----------------------------|
E|------------------------------------------|


           C         G/B
There's a feeling I get
        Am
When I look to the west
         C         G/B       F7M  Am
And my spirit is crying for lea__ving

        C              G/B
In my thoughts I have seen
           Am
Rings of smoke through the trees
         C          G/B            F7M  Am  C  G/B
And the voices of those who stand loo__king


Terceira Parte:

Am7  D4   D                Am7   Em  D  C  D
            Oh, it makes me wonder
Am7  D4   D
Oh,           it makes me wonder

( Am7  D5(9)  D  D4  D )


Quarta Parte - variação na letra:

           C             G/B
And it's whispered that soon
      Am
If we all call the tune
          C          G/B        F7M  Am
Then the piper will lead us to rea__son

       C            G/B
And a new day will dawn
      Am
For those who stand long
         C           G/B        F7M  Am  C  G/B
And the forests will echo with laughter


Terceira parte:

Am7  D5(9)  D  Am7  D5(9)  D  D4  D (2x)

(Entrada da Bateria)


Quarta Parte - variação na letra:

C               G/B            Am
  If there's a bustle in your hedgerow

Don't be alarmed now
C                G/B                F7M  Am
  It's just a spring clean for the may queen

C                 G/B              Am
  Yes there are two paths you can go by

But in the long run
C                G/B                F7M        Am
  There's still time to change the road you're on

( C  G/B )


Terceira Parte:

Am7  D5(9)  D                  Am7   D5(9)  D  D4  D
              And it makes me wonder

( Am7  D5(9)  D  Am7  D5(9)  D  D4  D )


Quarta Parte - variação na letra:

C               G/B            Am
  Your head is humming and it won't go

In case you don't know
C              G/B            F7M  Am
  The piper's calling you to join him

C            G/B              Am
  Dear lady can you hear the wind blow

And did you know
C                G/B          F7M  Am       C  G/B
  Your stairway lies on the whispering wind

Passagem Solo:

(Violão)

( D  D5(9)  D  D4  D5(9)  D  D4  D5(9)  D  D4  D )  C

( D5(9)  D  D4  D5(9)  D  D4  D5(9)  D  D4  D )

C  G/B

(Guitarra 2)


E|-2----0--2--3----0--2--3----0--2--3--3--2-|
B|-3----3--3--3----3--3--2----3--3--3--2--3-|
G|-2----2--2--2----2--2--3----2--2--2--2--2-|
D|-0----0--0--0----0--0--0----0--0--0--0--0-|
A|------------------------------------------|
E|------------------------------------------|


E|-0----2--2-0--------2--2-0----------------|
B|-3----3------3------3------3--------------|
G|-0--0----------0--0----------0------------|
D|-x--x----------x--x-----------------------|
A|-3--3----------3--3-----------------------|
E|------------------------------------------|


E|-0--2--3----0--2--3----0--2--3--3--2------|
B|-3--3--3----3--3--2----3--3--3--2--3------|
G|-2--2--2----2--2--3----2--2--2--2--2------|
D|-0--0--0----0--0--0----0--0--0--0--0------|
A|------------------------------------------|
E|------------------------------------------|


E|-0----2--2-2-0-----------2--2-2-0---------|
B|-3----3--------3----3----3--------3-------|
G|-0--0------------0--0--0------------0-----|
D|-x--x---------------0--0------------------|
A|-3--3---------------2--2------------------|
E|------------------------------------------|


Solo: Am  G  F

(Parte 1)

E|--------5-------------------------------------------|
B|----------8p5---------------------------------------|
G|-7b9~---------7p5---7p5-----------------------------|
D|------------------7-----7p5-------------------------|
A|----------------------------8~----------------------|
E|----------------------------------------------------|


(Parte 2)

E|------8--8--8b10--8--5---------8~--10p8-------------|
B|-8b10------------------10-/10~----------10p8---8h10~|
G|---------------------------------------------9------|
D|----------------------------------------------------|
A|----------------------------------------------------|
E|----------------------------------------------------|


(Parte 3)

E|-----5----------------------------------------------|
B|-------8p5------------------------------------------|
G|-7b9-------7p5---7p5-----------5---5--5~--0---------|
D|---------------7-----7p5---5-7---7------------------|
A|-------------------------7--------------------------|
E|----------------------------------------------------|


(Parte 4)

E|-5--------------------------------------------------|
B|---8-5----------------------------------------------|
G|-------7p5---7p5------------------------------------|
D|-----------7-----7-5-7p5-3--------------------------|
A|----------------------------------------------------|
E|----------------------------------------------------|


(Parte 5)

E|----------------------------------------------------|
B|-------6---------------------------13--15b17-b17r15-|
G|-----5---7p5---5-------12----12h14------------------|
D|-/7----------7---7/14-----14------------------------|
A|----------------------------------------------------|
E|----------------------------------------------------|


E|-------------15b17~-b17r15-12-----------------------|
B|-13-15-13---------------------15b17-15-13----13-----|
G|----------14------------------------------14--------|
D|----------------------------------------------------|
A|----------------------------------------------------|
E|----------------------------------------------------|


(Parte 6)

E|----------------------------------------------------|
B|-15b17r15p13----13-15b17r15p13----13-15b17r15p13----|
G|-------------14----------------14----------------14-|
D|----------------------------------------------------|
A|----------------------------------------------------|
E|----------------------------------------------------|


E|----------------------------------------------------|
B|-13-15b17r15p13----13-15b17r15p13----13-15b17r15p13-|
G|----------------14----------------14----------------|
D|----------------------------------------------------|
A|----------------------------------------------------|
E|----------------------------------------------------|


E|----------------------------------------------------|
B|----13-15b17r15p13----13-15b17r15p13----13----------|
G|-14----------------14----------------14-------------|
D|----------------------------------------------------|
A|----------------------------------------------------|
E|----------------------------------------------------|


E|-------------------------------------15b17~~--------|
B|-15b17r15p13----13-15b17r15p13----13----------------|
G|-------------14----------------14-------------------|
D|----------------------------------------------------|
A|----------------------------------------------------|
E|----------------------------------------------------|


(Parte 7)

E|-----15----------------------------------15---------|
B|-/17----17-15-13----13-15p13----13-15b17------------|
G|-----------------14----------14---------------------|
D|----------------------------------------------------|
A|----------------------------------------------------|
E|----------------------------------------------------|


E|----------------------------------------------------|
B|-b17r15p13------------------------------------------|
G|-----------14~--------------------------------------|
D|----------------------------------------------------|
A|----------------------------------------------------|
E|----------------------------------------------------|


(Parte 8)

E|-----15--17--15~------------------------------------|
B|-/17-------------17\15p13----15p13----13-15b17~-----|
G|--------------------------14-------14---------------|
D|----------------------------------------------------|
A|----------------------------------------------------|
E|----------------------------------------------------|


(Parte 9)

E|----------------------------------------------------|
B|-11b13---11b13-10------10---------------------------|
G|-------------------12-----12b14~--------------------|
D|----------------------------------------------------|
A|----------------------------------------------------|
E|----------------------------------------------------|


(Parte 10)

E|----------------------------------------------------|
B|----------------------------------------------------|
G|-10b14--10-9p7\5h7p5-7h9p7p5------------------------|
D|-----------------------------7~---------------------|
A|----------------------------------------------------|
E|----------------------------------------------------|


(Parte 11)

E|----20p17----20p17----20p17----20p17----20p17-------|
B|-17-------17-------17-------17-------17-------17----|
G|----------------------------------------------------|
D|----------------------------------------------------|
A|----------------------------------------------------|
E|----------------------------------------------------|


E|-20b22~---------------------------------------------|
B|----------------------------------------------------|
G|----------------------------------------------------|
D|----------------------------------------------------|
A|----------------------------------------------------|
E|----------------------------------------------------|


(Guitarra 3 - com slide)

E|----------------------------------------------------|
B|-13\12---13\10~-------------------------------------|
G|----------------------------------------------------|
D|----------------------------------------------------|
A|----------------------------------------------------|
E|----------------------------------------------------|


Quinta Parte:

(Guitarra 2)

      A5   G5   F5                G5
E|------------------------------------------|
B|------------------------------------------|
G|------------------------------------------| (3x)
D|-7-7--5-5--3---3---3---3---3-5------------|
A|-7-7--5-5--3---3---3---3---3-5------------|
E|-5-5--3-3--1-0-1-0-1-0-1-0-1-3------------|


Am            G                F   G
   And as we wind on down the road
Am              G               F   G
   Our shadows taller than our soul
Am                G            F  G
   There walks a lady we all know

(Guitarra 2)

      A5   G5   F5                  A5
E|------------------------------------------|
B|------------------------------------------|
G|------------------------------------------|
D|-7-7--5-5--3------------------------------|
A|-7-7--5-5--3-------3--5/7--5-3------------|
E|-5-5--3-3--1--3/5--------------5----------|


      A5 G5   F5
E|------------------------------------------|
B|------------------------------------------|
G|------------------------------------------| (3x)
D|-7--5-5--3--------------------------------|
A|-7--5-5--3-------3--5/7--5-3--------------|
E|-5--3-3--1--3/5--------------5------------|


Am                   G                   F  G
   Who shines white light and wants to show
Am            G                   F   G
   How everything still turns to gold
Am             G           F   G
   And if you listen very hard
Am                G              F   G
   The tune will come to you at last

Am              G           F            G
   When all are one and one is all, yeah
Am          G               F
   To be a rock and not to roll

Am  G  F (4x)


E|----------------------------------------------------|
B|--------------8h10~---------------------------------|
G|------5--7/9----------------------------------------|
D|-5/7------------------------------------------------|
A|----------------------------------------------------|
E|----------------------------------------------------|


E|----------------------------------------------------|
B|-3----5------8------10-----13-----------------------|
G|-5b7--7b9~---10b12--12b14--15b17~-------------------|
D|----------------------------------------------------|
A|----------------------------------------------------|
E|----------------------------------------------------|


E|----------------------------------------------------|
B|-12-----13----13------------------------------------|
G|-14b16--15b17-15b17~--------------------------------|
D|----------------------------------------------------|
A|----------------------------------------------------|
E|----------------------------------------------------|


E|----------------------------------------------------|
B|-12-----13----13------------------------------------|
G|-14b16--15b17-15b17~--------------------------------|
D|----------------------------------------------------|
A|----------------------------------------------------|
E|----------------------------------------------------|


E|----------------------------------------------------|
B|-12-----13------------------------------------------|
G|-14b16--15b17~--------------------------------------|
D|----------------------------------------------------|
A|----------------------------------------------------|
E|----------------------------------------------------|


E|----------------------------------------------------|
B|-15-----13-----12-----15-----13---------------------|
G|-17b19--15b17--14b16--17b19--15b17~-----------------|
D|----------------------------------------------------|
A|----------------------------------------------------|
E|----------------------------------------------------|


And she's buying a stairway to heaven
    Composição: Jimmy Page / Robert PlantColaboração e revisão:
    • vitor.falcao.96
    • Viktor
    • v.inny
    • pampolin
    • +17

    Comentários 284

    • Luiz Luiz: Postado em 29/06/2015 15:14

      não e pro meu bico, mais vou pelo menos tenar ,mais já sei que vou pensar em desistir de tocar por alguns tempos depois de fracassar

    • joel.lopes.585 joel.lopes.585: Postado em 19/06/2015 01:44

      seria melhor ter feito a aula da versão ao vivo, o dedilhado tem umas variações a mais e o solo é bem melhor, mais difícil mas melhor.

    • joel.lopes.585 joel.lopes.585: Postado em 19/06/2015 01:39

      não entendi o porque do violão se tudo era tocado na guitarra, só era guitarra teclado e bateria.

      • Hank Hank: Postado em 24/06/2015 04:24

        Fica a mesma coisa a intro no violão e guitarra, só depois que só dá pra fazer na guitarra

    • Fulano Fulano: Postado em 24/04/2015 16:06

      Perfeita >,

    • gabriel gabriel: Postado em 19/04/2015 22:51

      só o jimmy page pra fazer um solo foda e facil.

    • Matheus Matheus: Postado em 26/03/2015 16:08

      Eu escolhi ela para estudar e pegar. Pelo jeito é fácil. Eu acredito que eu consigo rsrsrs Valeu, pessoal do Cifra Club!

    • Claudio Claudio: Postado em 19/02/2015 18:30

      é ate facil tocar ela o foda e decora tudo

    • Joao Joao: Postado em 22/01/2015 11:23

      Facil!E muito boa de tocar!Mais iniciantes podem ter dificuldade com alg
      umas partes

    • Amanda Amanda: Postado em 22/12/2014 13:22

      Huehue... Quase quebrei minha unha na parte do D4

    Exibindo 10 de 284 comentários Mostrar mais ver todos »
    0:00 / 0:00

    Capítulos

      1 versão de baixoexibiçõescontribuição e correção
      1 versão de bateriaexibiçõescontribuição e correção
      1 versão de gaitaexibiçõescontribuição e correção
      1 versão de partiturasformatodownloadscontribuição
      play/pausefechar subir/descer velocidade
      6ª corda E5ª corda A4ª corda D3ª corda G2ª corda B1ª corda E
        acordes
        publicidad
        fechar
        ok