Que País É Este?

Legião Urbana

 Legião Urbana
Tom: G
		

(intro) (Em, C e D)
E|--------------------------------------|
B|--------------------------------------|
G|--------------------------------------|
D|--------------------------------------|
A|---777777777777775555555555555--------|
E|---555555555555555555555555555--------|

Nao sei o numero exato de vezes que é tocado, mas ouvindo
a música da pra pegar legal
Após esse inicio tem uma virada de bateria, então
a guitarra toca o solinho

E|--------7------7-----7-------7------5------3------3------3------3-------5-------------|
B|-----5-----5------5------5-------3------5-----5-----5-------5-------5-------3---------|
G|--------------------------------------------------------------------------------------|   (2x)
D|--------------------------------------------------------------------------------------|
A|--------------------------------------------------------------------------------------|
E|--------------------------------------------------------------------------------------|


Esse Riff é tocado durante toda a música

E|--------------------------------------|
B|--------------------------------------|
G|--------------------------------------|
D|--9-9-7-9-9-7-9-7-5-5-5-5-7-7-7-7-----|
A|--7-7-5-7-7-5-7-5-3-3-3-3-5-5-5-5-----|
E|--------------------------------------|


Solo do Baixo

E|---------------------------------------------------------------
B|---------------------------------------------------------------
G|---------------------------------------------------------------
D|---------------------------------------------------------------
A|-7-7-5-7-7-5-7-7-0-3-3-3-0-5-5-5-------------------------------
E|---------------------------------------------------------------


   c/ efeito            Guitarra 2

E|-7~~-12~~-17~~-|-(7)-|-7fb---------------------------------------------------------------------------|
B|---------------|-(5)-|-------8fb---------------------------------------------------------------------|
G|---------------|-----|-------------9p7-9p7-9p7-9p7-9p7-----------------------------------------------|
D|---------------|-----|---------------------------------9-----7p5-7p5-7p5-7p5-7p5-------7p5-7p5-7p5---|
A|---------------|-----|-----------------------------------------------------------7-----------------7-|
E|---------------|-----|-------------------------------------------------------------------------------|


Violão: Depois da guitarra 2 começa o violão.
SOLO:
                                                                                       1

E|--------7------7-----7-------7------5------3------3------3------3-------5-------------|
B|-----5-----5------5------5-------3------5-----5-----5-------5-------5-------3---------|
G|--------------------------------------------------------------------------------------|   (2x)
D|--------------------------------------------------------------------------------------|
A|--------------------------------------------------------------------------------------|
E|--------------------------------------------------------------------------------------|

  1

OBS: Enquanto isso acompanha a Introdução
(Em C D)
Nas favelas, no Senado
Sujeira pra todo lado
Ninguém respeita a Constituicão
Mas todos acreditam no futuro da nação

(Em  C  D)
Que país é este |4x

Violão:
SOLO:
                                                                                         1

E|--------7------7-----7-------7------5------3------3------3------3-------5-------------|
B|-----5-----5------5------5-------3------5-----5-----5-------5-------5-------3---------|
G|--------------------------------------------------------------------------------------|   (2x)
D|--------------------------------------------------------------------------------------|
A|--------------------------------------------------------------------------------------|
E|--------------------------------------------------------------------------------------|

  1
OBS: Enquanto isso acompanha a Introdução
(Em C D)
No Amazonas, no Araguaia iaia, na Baixada Fluminense
no Mato Grosso, nas Gerais e no Nordeste tudo em paz
Na morte eu descanso mas o sangue anda solto
Manchando os papéis, documentos fiéis
Ao descanso do patrão

(Em C D)
Que país é este (4x)

Violão:
SOLO:
                                                                                         1

E|--------7-----7-----7-------7------5------3------3------3------3------5---------------|
B|-----5-----5------5------5------3------5------5------5------5------5------3-----------|
G|--------------------------------------------------------------------------------------|      (2x)
D|--------------------------------------------------------------------------------------|
A|--------------------------------------------------------------------------------------|
E|--------------------------------------------------------------------------------------|

  1

(O solo acompanha durante todo o terceiro verso, apenas solo e introdução)

Terceiro mundo se for
Piada no exterior
Mas o Brasil vai ficar rico
Vamos faturar um milhão
Quando vendermos todas as almas
Dos nossos índios num leilão
Texto Colunas
Alterar tom ½ tom ½ tom
afinação acordes na letra esconder tabs mais »

Comentários 4

  • Louise Louise: Postado em 13/01/2014 11:27

    Me ajudou muito

  • Vanessa Gomes Vanessa Gomes : Postado em 07/03/2013 17:36

    Léo seu lindo , *-----------------------------*

  • felipeguitarra felipeguitarra: Postado em 05/01/2013 03:37

    verdade , parabens ! mostro como tocar com guitarra mais compelto , tem umas coisas erradas na intro , mas ta legal!

  • theeuz_xd theeuz_xd: Postado em 30/01/2011 15:17

    Super Completo , Parabens ! o/

Composição: Renato Russo
Esse não é o compositor? Avise-nos.
Contribuição: Gabriel Correções: Noel , paulicorocha e mais 12 »
  1. Domingo de Manhã - Marcos e Belutti Manteve-se 101.185 exibições
  2. Logo Eu - Jorge e Mateus Manteve-se 47.672 exibições
  3. Não Vai Voltar - Onze:20 Manteve-se 40.815 exibições
  4. Maus Bocados - Cristiano Araújo Manteve-se 39.771 exibições
  5. Pra Você - Onze:20 Manteve-se 39.760 exibições
  6. Recaídas - Henrique e Juliano Manteve-se 38.818 exibições
  7. É Preciso Saber Viver - Titãs Manteve-se 34.345 exibições
  8. Aonde Quer Que Eu Vá - Os Paralamas do Sucesso Manteve-se 33.730 exibições
  9. Só Os Loucos Sabem - Charlie Brown Jr. Manteve-se 32.572 exibições
  10. Pais e Filhos - Legião Urbana Manteve-se 30.673 exibições
  1. Jorge e Mateus- Manteve-se 288.852 exibições
  2. Legião Urbana- Manteve-se 218.605 exibições
  3. Charlie Brown Jr.- Manteve-se 154.736 exibições
  4. Fernandinho- Manteve-se 125.080 exibições
  5. Marcos e Belutti- Manteve-se 124.867 exibições
  6. Henrique e Juliano- Manteve-se 118.090 exibições
  7. Bruno e Marrone- Manteve-se 108.966 exibições
  8. Onze:20- Manteve-se 104.107 exibições
  9. Luan Santana- Manteve-se 94.621 exibições
  10. Thalles Roberto- Manteve-se 93.884 exibições
Exibir acordes »

Cifras e tabs

Fórum Cifra Club

Aprenda

Cifra Club News

Mais Serviços Cifra Club ID

Studio Sol

©1996 - 2014 Cifra Club · o primeiro, maior e mais acessado do Brasil · 336 mil músicas · 6.2 milhões pessoas cadastradas

publicidade
fechar