Vento No Litoral

Legião Urbana

 Legião Urbana Compositor: Dado Villa-lobos / Renato Russo
Tom: F
		
(intro) Am  Em (2x)
        F   C (2x)

(parte 1)

e|---------------------------------------------------|
B|---5---3---1-----12----10---8----------------------|
G|---------------------------------------------------|
D|-5---4---2----12----10----9------------------------|   (2x)
A|---------------------------------------------------|
E|---------------------------------------------------|


(parte 2)

e|---------------------------------------------------|
B|---6---5---3----5---3---1--------------------------|
G|---------------------------------------------------|  (2x)
D|-7---5---3----5---3---2----------------------------|
A|---------------------------------------------------|
E|---------------------------------------------------|


(parte 3 - repete parte 1)


e|---------------------------------------------------|
B|---5---3---1-----12----10---8----------------------|
G|---------------------------------------------------|
D|-5---4---2----12----10----9------------------------|   (2x)
A|---------------------------------------------------|
E|---------------------------------------------------|


(parte 4)

e|---------------------------------------------------|
B|---5---3---1----6---5---3----5---3---1-------------|
G|---------------------------------------------------|
D|-5---3---2----8---7---5----7---5---2---------------|
A|---------------------------------------------------|
E|---------------------------------------------------|



(parte 5)             Am
e|---------------------------------------------------|
B|-0h1-----1-3---0----1--0h1-----1-3---0-------------|
G|-------0---------0--2--------0---------0-----------|
D|-----0-------0------2------0-------0---------------|
A|--------------------0------------------------------|
E|---------------------------------------------------|


    Am                        Em
De tarde quero descansar, chegar até a praia e ver
      Am
se o vento ainda está forte e vai
     Em
ser bom subir nas pedras sei
     C
Que faço isso pra esquecer
    Bb9
Eu deixo a onda me acertar
     Am                       F    G  Am    F     G   C
e o vento vai levando tudo embora


   C              F
e|------------------------------------------|
B|-1------1---------------1-----------------|
G|-0----0-------0-------2-------2-----------|
D|-2--2-------2---2---3-------3---3---------|
A|-3--------3-------------------------------|
E|------------------1-------1---------------|



   Em         Dm
e|------------------------1-----------------|
B|-------0--------------3-------3-----------|
G|-----0-------0------2-------2---2---------|
D|---2-------2---2--0-------0---------------|
A|------------------------------------------|
E|-0-------0--------------------------------|


(passagem)

               F        Em
e|------------------------------------------|
B|-0---1---3-0-------1---------------0------|
G|---0---0---------2-------2-------0--------|
D|---------------3-------3---3---2----------|
A|-----0---2--------------------------------|
E|-3-----------1-------1-------0------------|



           Dm       Bb9
e|---------------1--------------------------|
B|-------------3-------3---------1----------|
G|-----0-----2-------2---2-----3-------3----|
D|---2---2-0-------0---------3-------3---3--|
A|-------------------------1-------1--------|
E|-0----------------------------------------|



   Am
e|------------------------------------------|
B|-------1----------------------------------|
G|-----0------------------------------------|
D|---2-------2------------------------------|
A|-0-------0--------------------------------|
E|------------------------------------------|



(parte 5 da intro)    Am
e|---------------------------------------------------|
B|-0h1-----1-3---0----1--0h1-----1-3---0-------------|
G|-------0---------0--2--------0---------0-----------|
D|-----0-------0------2------0-------0---------------|
A|--------------------0------------------------------|
E|---------------------------------------------------|


(solo)

e|----12----10---8---7---5---3-----------------------|
B|---------------------------------------------------|
G|-12----11----9---7---5---4-------------------------|
D|---------------------------------------------------|
A|---------------------------------------------------|
E|---------------------------------------------------|



e|----12----10---8---7---5---3-----------------------|
B|---------------------------------------------------|
G|-12----11----9---7---5---4-------------------------|
D|---------------------------------------------------|
A|---------------------------------------------------|
E|---------------------------------------------------|


(repete partes 4 e 5 da intro)
(parte 4)

e|---------------------------------------------------|
B|---5---3---1----6---5---3----5---3---1-------------|
G|---------------------------------------------------|
D|-5---3---2----8---7---5----7---5---2---------------|
A|---------------------------------------------------|
E|---------------------------------------------------|



(parte 5)             Am
e|---------------------------------------------------|
B|-0h1-----1-3---0----1--0h1-----1-3---0-------------|
G|-------0---------0--2--------0---------0-----------|
D|-----0-------0------2------0-------0---------------|
A|--------------------0------------------------------|
E|---------------------------------------------------|




F                 Em
  Agora está tão longe ver
                Dm
A linha do horizonte me distrai:
             G    Am     G/B        F
Dos nossos planos é que tenho mais saudade,
                  Em                  Dm
Quando olhávamos juntos na mesma direção
         Bb9                     Am
Aonde está você agora além de aqui, dentro de mim?

( F   G  Am   F   G   Am   Em  Am   Em )
( C   Bb9 Am   F   G )


   Cm       G/B
e|------------------------------------------|
B|-4-----4---------3-----3------------------|
G|-----5-------5-------0-------0------------|
D|---5-------5---5---0-------0---0----------|
A|-3---3---3---3---2---2---2---2------------|
E|------------------------------------------|



   Gm/Bb
e|------------------------------------------|
B|-3-----3----------------------------------|
G|-----0-------0----------------------------|
D|---0-------0---0--------------------------|
A|-1---1---1---1----------------------------|
E|------------------------------------------|



   A4      A   A4  Dm
e|---------------0-1-----1------------------|
B|-3-----3-2---3-------3-------3------------|
G|-----2-----2-------2-------2---2----------|
D|---2-------------0-------0----------------|
A|-0---0---0---0----------------------------|
E|------------------------------------------|



   C              G/B     Am      G
e|------------------------------------------|
B|-------1----------------3---------------3-|
G|-----0-------0--------0-------2-------0---|
D|---2-------2---2----0-------2---2---0-----|
A|-3-------3----------------0-------2-------|
E|------------------3-----------------------|



   F       Em              A7
e|------------------------------------------|
B|---------------0---------------2----------|
G|-----2-------0-------0-------0-------0----|
D|---3---3---2-------2---2---2-------2---2--|
A|-------------------------0-------0--------|
E|-1-------0-------0------------------------|



   Dm              Dm/C
e|-------1---------------1------------------|
B|-----3-------3-------3-------3------------|
G|---2-------2---2---2-------2---2----------|
D|-0-------0--------------------------------|
A|-----------------3-------3----------------|
E|------------------------------------------|



   Bb9              G
e|------------------------------------------|
B|-------1----------------3-----------------|
G|-----3-------3--------0-------0-----------|
D|---3-------3---3----0-------0---0---------|
A|-1-------1--------------------------------|
E|------------------3-------3---------------|



   C                F
e|------------------------------------------|
B|-------1----------------1-----------------|
G|-----0-------0--------2-------2-----------|
D|---2-------2---2----3-------3---3---------|
A|-3-------3--------------------------------|
E|------------------1-------1---------------|



   Bb9              G
e|------------------------------------------|
B|-------1---------------3------------------|
G|-----3-------3-------0-------0------------|
D|---3-------3---3---0-------0---0----------|
A|-1-------1--------------------------------|
E|-----------------3-------0----------------|


Cm
  Agimos certo sem querer
G/B
  Foi só o tempo que errou
Gm/Bb
  Vai ser difícil sem você
     A7(4)           A7           Dm
Porque você está comigo o tempo todo
Quando vejo o mar
C
  Existe algo que diz:
   G/B       Am            G           F
A vida continua e se entregar é uma bobagem
 Em       A7            Dm
Já que você não está aqui,
               Dm/C     Bb9    G
O que posso fazer é cuidar de mim
       C                  F
Quero ser feliz ao menos
               Bb9        G
Lembra que o plano era ficarmos bem?


e|----12----10---8---7---5---3-----------------------|
B|---------------------------------------------------|
G|-12----11----9---7---5---4-------------------------|
D|---------------------------------------------------|
A|---------------------------------------------------|
E|---------------------------------------------------|



e|----12----10---8---7---5---------------------------|
B|---------------------------------------------------|
G|-12----11----9---7---5-----------------------------|
D|---------------------------------------------------|
A|---------------------------------------------------|
E|---------------------------------------------------|


(volta passagem)

e|------------------------------------------|
B|-0---1---3-0------------------------------|
G|---0---0----------------------------------|
D|------------------------------------------|
A|-----0---2--------------------------------|
E|-3----------------------------------------|



   C                F
e|------------------------------------------|
B|-------1----------------1-----------------|
G|-----0-------0--------2-------2-----------|
D|---2-------2---2----3-------3---3---------|
A|-3-------3--------------------------------|
E|------------------1-------1---------------|



   E4               E
e|------------------------------------------|
B|------------------------------------------|
G|-------2----------------1-----------------|
D|-----2-------2--------2-------2-----------|
A|---2-------2---2----2-------2---2---------|
E|-0-------0--------0-------0---------------|


(parte 1 da intro)

e|---------------------------------------------------|
B|---5---3---1-----12----10---8----------------------|
G|---------------------------------------------------|
D|-5---4---2----12----10----9------------------------|     (2x)
A|---------------------------------------------------|
E|---------------------------------------------------|


(parte 4 da intro)

e|---------------------------------------------------|
B|---5---3---1----6---5---3----5---3---1-------------|
G|---------------------------------------------------|
D|-5---3---2----8---7---5----7---5---2---------------|
A|---------------------------------------------------|
E|---------------------------------------------------|


(parte 5 da intro)(diferente)

                      C
e|---------------------------------------------------|
B|-0h1-----1-3---0----1------------------------------|
G|-------0---------0--0------------------------------|
D|-----0-------0------2------------------------------|
A|--------------------3------------------------------|
E|---------------------------------------------------|


(parte 2 da intro)

e|---------------------------------------------------|
B|---6---5---3----5---3---1--------------------------|
G|---------------------------------------------------| (2x)
D|-7---5---3----5---3---2----------------------------|
A|---------------------------------------------------|
E|---------------------------------------------------|


Am   Em                Am      G  Am  G/B
- Ei, olha só o que eu achei:
C               F   E4   E
  Cavalos-marinhos

( Am    Em ) (2x)

C
Sei que faço isso pra esquecer
    Bb9
Eu deixo a onda me acertar...

Comentários 74

  • denilson denilson: Postado em 27/09/2014 11:30

    Música Show de bola de tocar com os amigos...!

  • cassiabuzios cassiabuzios: Postado em 21/03/2014 21:55

    Uma PRECIOSIDADE do Legião... #ETERNA#!!

  • pedrohenrique pedrohenrique: Postado em 19/03/2014 23:44

    facil mto facill

  • wilamesouza wilamesouza: Postado em 13/03/2014 18:12

    Final do Piano

    e |-8----8---8---8----10----12----13------13---13---13---12----10----12----12---12---12----10--8--10---10--10--10--8--7--8-|

  • Davi Davi: Postado em 03/02/2014 01:00

    So se esqueceram que no final tem : E o vento vai levando tudo embora....

    • Edilson Edilson: Postado em 06/02/2014 15:47

      Verdade!

  • Gabriel Gabriel: Postado em 27/01/2014 10:52

    a musica é lenta e fica muito facil

  • tayná tayná: Postado em 12/12/2013 15:56

    Uffa *-*

  • Amanda Amanda: Postado em 06/12/2013 19:33

    Só eu que to tendo quase um infarte ao pensar que eu consegui???

Exibindo 10 de 74 comentários Mostrar mais ver todos »
Composição: Dado Villa-Lobos / Renato Russo
Esse não é o compositor? Avise-nos.
Contribuição: Danilo Correções: DOUGLAS SOUZA , poderoso thor e mais 9 »
Exibir acordes »
publicidade
fechar