Cifra Club

Vento No Litoral

Legião Urbana

Cifra: Principal (violão e guitarra)
exibições 2.228.649
Tom: Dm
[Intro] Am  Em  Am  Em  
        F   C  F   C

[Parte 1 de 5]

E|------------------------------------------|
B|---5---3---1-----12----10---8-------------|
G|------------------------------------------|
D|-5---4---2----12----10----9---------------| (2x)
A|------------------------------------------|
E|------------------------------------------|

[Parte 2 de 5]

E|------------------------------------------|
B|---6---5---3----5---3---1-----------------|
G|------------------------------------------| (2x)
D|-7---5---3----5---3---2-------------------|
A|------------------------------------------|
E|------------------------------------------|

[Parte 3 de 5] (repete parte 1)

E|------------------------------------------|
B|---5---3---1-----12----10---8-------------|
G|------------------------------------------| (2x)
D|-5---4---2----12----10----9---------------|   
A|------------------------------------------|
E|------------------------------------------|

[Parte 4 de 5]

E|------------------------------------------|
B|---5---3---1----6---5---3----5---3---1----|
G|------------------------------------------| (2x)
D|-5---3---2----8---7---5----7---5---2------|
A|------------------------------------------|
E|------------------------------------------|

[Parte 5 de 5]

                         Am
E|------------------------------------------|
B|-0h1-----1-3---0----1--0h1-----1-3---0----|
G|-------0---------0--2--------0---------0--| 
D|-----0-------0------2------0-------0------|
A|--------------------0---------------------|
E|------------------------------------------|

[Primeira Parte]

    Am                        
De tarde quero descansar
  Em
Chegar até a praia e ver
      Am
Se o vento ainda está forte e vai
     Em
Ser bom subir nas pedras sei
     C
Que faço isso pra esquecer
    Bb9
Eu deixo a onda me acertar
     Am                       F    
E o vento vai levando tudo embora

( G  Am  F  G )

[Segunda Parte]

[Parte 1 de 9]

      C             F
E|------------------------------------------|
B|-1-------1---------------1----------------|
G|-0-----0-------0-------2-------2----------|
D|-2---2-------2---2---3-------3---3--------|
A|-3---------3------------------------------|
E|------------------1-------1---------------|

[Parte 2 de 9]

   Em               Dm
E|------------------------1-----------------|
B|-------0--------------3-------3-----------|
G|-----0-------0------2-------2---2---------|
D|---2-------2---2--0-------0---------------|
A|------------------------------------------|
E|-0-------0--------------------------------|

[Parte 3 de 9](Passagem)

               F              Em
E|------------------------------------------|
B|-0---1---3-0-------1---------------0------|
G|---0---0---------2-------2-------0--------|
D|---------------3-------3---3---2----------|
A|-----0---2--------------------------------|
E|-3-----------1-------1-------0------------|

[Parte 4 de 9]

           Dm             Bb9
E|---------------1--------------------------|
B|-------------3-------3---------1----------|
G|-----0-----2-------2---2-----3-------3----|
D|---2---2-0-------0---------3-------3---3--|
A|-------------------------1-------1--------|
E|-0----------------------------------------|

[Parte 5 de 9]

   Am
E|------------------------------------------|
B|-------1----------------------------------|
G|-----0------------------------------------|
D|---2-------2------------------------------|
A|-0-------0--------------------------------|
E|------------------------------------------|

[Parte 6 de 9]

                     Am
E|------------------------------------------|
B|-0h1-----1-3---0----1--0h1-----1-3---0----|
G|-------0---------0--2--------0---------0--|
D|-----0-------0------2------0-------0------|
A|--------------------0---------------------|
E|------------------------------------------|

[Parte 7 de 9] [Solo]

E|----12----10---8---7---5---3--------------|
B|------------------------------------------|
G|-12----11----9---7---5---4----------------|
D|------------------------------------------|
A|------------------------------------------|
E|------------------------------------------|

[Parte 8 de 9]

E|------------------------------------------|
B|---5---3---1----6---5---3----5---3---1----|
G|------------------------------------------|
D|-5---3---2----8---7---5----7---5---2------|
A|------------------------------------------|
E|------------------------------------------|

[Parte 9 de 9]

                      Am
E|------------------------------------------|
B|-0h1-----1-3---0----1--0h1-----1-3---0----|
G|-------0---------0--2--------0---------0--|
D|-----0-------0------2------0-------0------|
A|--------------------0---------------------|
E|------------------------------------------|


C F                 Em
    Agora está tão longe ver
                Dm
A linha do horizonte me distrai
             G    Am     G/B           F
Dos nossos planos é que tenho mais saudade
                  Em                  Dm
Quando olhávamos juntos na mesma direção
         Bb9                     Am
Aonde está você agora além de aqui, dentro de mim?

( F  G  Am F  G  Am  Em  Am  Em  )
( C Bb9 )
( Am  F  G )
( Am  F  G )

[Terceira Parte]

[Parte 1 de 9]

   Cm              G/B
E|------------------------------------------|
B|-4-----4---------3-----3------------------|
G|-----5-------5-------0-------0------------|
D|---5-------5---5---0-------0---0----------|
A|-3---3---3---3---2---2---2---2------------|
E|------------------------------------------|

[Parte 2 de 9]

   Gm/Bb
E|------------------------------------------|
B|-3-----3----------------------------------|
G|-----0-------0----------------------------|
D|---0-------0---0--------------------------|
A|-1---1---1---1----------------------------|
E|------------------------------------------|

[Parte 3 de 9]

   A4      A   A4  Dm
E|---------------0-1-----1------------------|
B|-3-----3-2---3-------3-------3------------|
G|-----2-----2-------2-------2---2----------|
D|---2-------------0-------0----------------|
A|-0---0---0---0----------------------------|
E|------------------------------------------|

[Parte 4 de 9]

   C                G/B     Am      G
E|------------------------------------------|
B|-------1----------------3---------------3-|
G|-----0-------0--------0-------2-------0---|
D|---2-------2---2----0-------2---2---0-----|
A|-3-------3--------2-------0---------------|
E|----------------------------------3-------|

[Parte 5 de 9]

   F       Em              A7
E|------------------------------------------|
B|---------------0---------------2----------|
G|-----2-------0-------0-------0-------0----|
D|---3---3---2-------2---2---2-------2---2--|
A|-------------------------0-------0--------|
E|-1-------0-------0------------------------|

[Parte 6 de 9]

   Dm              Dm/C
E|-------1---------------1------------------|
B|-----3-------3-------3-------3------------|
G|---2-------2---2---2-------2---2----------|
D|-0-------0--------------------------------|
A|-----------------3-------3----------------|
E|------------------------------------------|

[Parte 7 de 9]

   Bb9              G
E|------------------------------------------|
B|-------1----------------3-----------------|
G|-----3-------3--------0-------0-----------|
D|---3-------3---3----0-------0---0---------|
A|-1-------1--------------------------------|
E|------------------3-------3---------------|

[Parte 8 de 9]

   C                F
E|------------------------------------------|
B|-------1----------------1-----------------|
G|-----0-------0--------2-------2-----------|
D|---2-------2---2----3-------3---3---------|
A|-3-------3--------------------------------|
E|------------------1-------1---------------|

   Bb9             G
E|------------------------------------------|
B|-------1---------------3------------------|
G|-----3-------3-------0-------0------------|
D|---3-------3---3---0-------0---0----------|
A|-1-------1--------------------------------|
E|-----------------3-------0----------------|

Cm
  Agimos certo sem querer
G/B
  Foi só o tempo que errou
Gm/Bb
      Vai ser difícil sem você
     A7(4)          A7           Dm
Porque você está comigo o tempo todo

Quando vejo o mar
C
  Existe algo que diz
   G/B       Am            G           F
A vida continua e se entregar é uma bobagem
 Em       A7            Dm
Já que você não está aqui
               Dm/C     Bb9    G
O que posso fazer é cuidar de mim
       C              F
Quero ser feliz ao menos
               Bb9        G
Lembra que o plano era ficarmos bem?

[Quarta Parte]

[Parte 1 de 9]

E|----12----10---8---7---5---3--------------|
B|------------------------------------------|
G|-12----11----9---7---5---4----------------|
D|------------------------------------------|
A|------------------------------------------|
E|------------------------------------------|

[Parte 2 de 9]

E|----12----10---8---7---5------------------|
B|------------------------------------------|
G|-12----11----9---7---5--------------------|
D|------------------------------------------|
A|------------------------------------------|
E|------------------------------------------|

[Parte 3 de 9] (Passagem)

E|------------------------------------------|
B|-0---1---3-0------------------------------|
G|---0---0----------------------------------|
D|------------------------------------------|
A|-----0---2--------------------------------|
E|-3----------------------------------------|

[Parte 4 de 9]

   C                F
E|------------------------------------------|
B|-------1----------------1-----------------|
G|-----0-------0--------2-------2-----------|
D|---2-------2---2----3-------3---3---------|
A|-3-------3--------------------------------|
E|------------------1-------1---------------|

[Parte 5 de 9]

   E4               E
E|------------------------------------------|
B|------------------------------------------|
G|-------2----------------1-----------------|
D|-----2-------2--------2-------2-----------|
A|---2-------2---2----2-------2---2---------|
E|-0-------0--------0-------0---------------|

[Parte 6 de 9] (Parte 1 da Intro)

E|------------------------------------------|
B|---5---3---1-----12----10---8-------------|
G|------------------------------------------| (2x)
D|-5---4---2----12----10----9---------------| 
A|------------------------------------------|
E|------------------------------------------|

[Parte 7 de 9] (Parte 4 da Intro)

E|------------------------------------------|
B|---5---3---1----6---5---3----5---3---1----|
G|------------------------------------------|
D|-5---3---2----8---7---5----7---5---2------|
A|------------------------------------------|
E|------------------------------------------|

[Parte 8 de 9] (Parte 5 da Intro)

                      C
E|------------------------------------------|
B|-0h1-----1-3---0----1---------------------|
G|-------0---------0--0---------------------|
D|-----0-------0------2---------------------|
A|--------------------3---------------------|
E|------------------------------------------|

[Parte 9 de 9] (parte 2 da Intro)

E|------------------------------------------|
B|---6---5---3----5---3---1-----------------|
G|------------------------------------------| (2x)
D|-7---5---3----5---3---2-------------------|
A|------------------------------------------|
E|------------------------------------------|

Am    Em                 Am      
   Ei,  olha só o que eu achei

( G  Am  G/B )

C               F  E4  E
  Cavalos-marinhos

( Am  Em )
( Am  Em )

         C
Sei que faço isso pra esquecer
    Bb9
Eu deixo a onda me acertar
     Am                       F    
E o vento vai levando tudo embora

[Final] G  Am  F  G  C  F  C

0 comentários

mostrar mais comentários

Conseguiu tocar?

217 tocaram 11 ainda não

Grave um vídeo tocando Vento No Litoral e mande pra gente!

00:00 / 00:00
outros vídeos desta música
repetir qualidade Automático
Outros vídeos desta música
00:00 / 00:00
Automático
Capítulos
  • Início
  • Acordes da introdução e primeira parte
  • Tocando introdução e primeira parte
  • Ensinando ritmo da intro e primeira parte
  • Ensinando solo da intro e primeira parte
  • Ensinando solo (parte 1)
  • Ensinando solo (parte 2)
  • Ensinando solo (parte 3)
  • Ensinando solo (parte 4)
  • Ensinando solo (parte 5)
  • Acordes da segunda parte
  • Tocando a segunda parte
  • Ensinando ritmo segunda parte
  • Ensinando dedilhado segunda parte
  • Ensinando dedilhado segunda parte (passagem)
  • Ensinando dedilhado segunda parte (cont.)
  • Ensinando solo
  • Acordes da terceira parte
  • Tocando terceira parte
  • Ensinando ritmo da terceira parte
  • Ensinando dedilhado da terceira parte
  • Acordes da quarta parte
  • Tocando a quarta parte
  • Ensinando ritmo da quarta parte
  • Ensinando dedilhado e arranjos da quarta parte
  • Tocando trecho da música
  • Encerramento
  • Extras
OK