Cifra Club

Índios

Legião Urbana

Cifra: Principal (violão e guitarra)
exibições 3.239.164
Tom: G
[Intro Primeira Parte] G  D  D11
                       G  D  D11
                       G  D  D11

[Intro Segunda Parte] Am7  D11  Bm  Em  Am  D7  Bm  Em7

[Intro Primeira Parte]

Parte 1

   G
E|-3---3--------5-x-7-----------------------|
B|-0-0-------0----x-------------------------|
G|-0-0-----0-0--5-x-7-----------------------|
D|-5-----0--------x-5-----------------------|
A|--------------3-x-------------------------|
E|------------------------------------------|
     ↓       ↓

Parte 2

   D            D11
E|-2---2-----0------------------------------|
B|---3----------3---3-----------------------|
G|-2-2-----2-0----0-------0-----------------|
D|-0------------4-4-----4-4-----------------|
A|-------0------5-----0---------------------|
E|------------------------------------------|
     ↓            ↓       ↓

[Intro Segunda Parte]

Parte 1   

   Am7
E|---3-2-3----3-2-3----3-2-3----3-2-3-------|
B|-----1--------1--------1--------1---------|
G|-----0--------0--------0--------0---------|
D|------------------------------------------|
A|-0--------2--------3----------------------|
E|----------------------------3-------------|
       ↓        ↓        ↓        ↓

Parte 2

   D11
E|---5-3-5----5-3-5----5-3-5----5-3-5-------|
B|-----3--------3--------3--------3---------|
G|-----0--------0--------0--------0---------|
D|-----4--------4--------4--------4---------|
A|-5--------0--------5--------0-------------|
E|------------------------------------------|
       ↓        ↓        ↓        ↓

Parte 3

   Bm
E|---7-5-7----7-5-7----7-5-7----7-5-7-------|
B|-----0--------0--------0--------0---------|
G|-----7--------7--------7--------7---------|
D|------------------------------------------|
A|------------------------------------------|
E|-7--------7--------7--------7-------------|
       ↓        ↓        ↓        ↓

Parte 4

   Em
E|---7-5-7----7-5-7----7-5-7----7-5-7-------|
B|-----5--------5--------5--------5---------|
G|-----0--------0--------0--------0---------|
D|------------------------------------------|
A|------------------------------------------|
E|-0--------7--------0--------7-------------|
       ↓        ↓        ↓        ↓

Parte 5

   Am
E|---8-7-8----8-7-8----8-7-8----8-7-8-------|
B|-----8--------8--------8--------8---------|
G|-----0--------0--------0----0---0---------|
D|------------------------------------------|
A|-0----------------------------------------|
E|----------7--------8----------------------|
       ↓        ↓        ↓        ↓

Parte 6

   D7
E|---8-7-8----8-7-8----8-7-8----8-7-8-------|
B|-----7--------7--------7--------7---------|
G|-----7--------7--------7--------7---------|
D|-0-----------------0----------------------|
A|----------0-----------------0-------------|
E|------------------------------------------|
       ↓        ↓        ↓        ↓

Parte 7

   Bm
E|--10-8-10---10-8-10---10-8-10---10-8-10---|
B|-----7---------7---------7---------7------|
G|-----7---------7---------7---------7------|
D|------------------------------------------|
A|----------9-------------------9-----------|
E|-7------------------7---------------------|
       ↓         ↓         ↓         ↓

Parte 8

   Em7
E|--10-8-10---10-8-10---10-8-10---10-8-10---|
B|-----8---------8---------8---------8------|
G|-----7---------7---------7---------7------|
D|------------------------------------------|
A|-7------------------7---------------------|
E|----------7-------------------7-----------|
       ↓         ↓         ↓         ↓

[Primeira Parte]

Parte 1

   Am7
E|---0---3----5--x--3---3-------------------|
B|---1-----------x--1---1-------------------|
G|---0--------5--x------0-------------------|
D|---2-----------x--------------------------|
A|-0---2---x--3--x--------------------------|
E|---------x-----x----3---------------------|
     ↓                  ↓

Parte 2

   D11
E|------------------------------------------|
B|---3---3-3-3----3---3-3-3-----------------|
G|---0---0-0-0----0---0-0-0-----------------|
D|---4---4-4-4----4---4-4-4-----------------|
A|-5---0--------5---0-----------------------|
E|------------------------------------------|
     ↓   ↑ ↓ ↑    ↓   ↑ ↓ ↑

Parte 3

   Bm7
E|------------------------------------------|
B|---3---3-3-3----3---3-3-3-----------------|
G|---0---0-0-0----0---0-0-0-----------------|
D|---4---4-4-4----4---4-4-4-----------------|
A|-2------------2---------------------------|
E|-----2------------2-----------------------|
     ↓   ↑ ↓ ↑    ↓   ↑ ↓ ↑

Parte 4

   Em
E|---0---0-0-0----0---0-0-0-----------------|
B|---0---0-0-0----0---0-0-0-----------------|
G|---0---0-0-0----0---0-0-0-----------------|
D|---2---2-2-2----2---2-2-2-----------------|
A|-----2------------2-----------------------|
E|-0------------0---------------------------|
     ↓   ↑ ↓ ↑    ↓   ↑ ↓ ↑

Am7
    Quem me dera ao menos uma vez
        D11
Ter de volta todo o ouro

Que entreguei a quem
       Bm7
Conseguiu me convencer 

Que era prova de amizade
       Em
Se alguém levasse embora

Até o que eu não tinha

Am7
    Quem me dera ao menos uma vez
      D11
Esquecer que acreditei 

Que era por brincadeira
     Bm7
Que se cortava sempre um pano de chão
    Em
De linho nobre e pura seda

Am7
    Quem me dera ao menos uma vez
      D11
Explicar o que ninguém 

Consegue entender
            Bm7
Que o que aconteceu ainda está por vir
       Em
E o futuro não é mais 

Como era antigamente

Am7
    Quem me dera ao menos uma vez
    D11
Provar que quem tem mais 

Do que precisa ter
       Bm7
Quase sempre se convence 

Que não tem o bastante
 Em
Fala demais por não ter nada a dizer

Am7
    Quem me dera ao menos uma vez
            D11
Que o mais simples fosse visto

Como o mais importante
Bm7
    Mas nos deram espelhos 
   Em
E vimos um mundo doente

Am7
    Quem me dera ao menos uma vez
      D11
Entender como um só Deus 

Ao mesmo tempo é três
        Bm7
E esse mesmo Deus foi morto por vocês
        Em
Sua maldade, então

Deixaram Deus tão triste

[Segunda Parte]

C  G7M/B        Am7
   Eu quis o perigo
           D/F#          G
E até sangrei sozinho entenda
   D/F#                    Em
Assim pude trazer você de volta pra mim
        C
Quando descobri que é sempre só você
          D11       G        D/F#
Que me entende do início ao fim

Em
   E é só você que tem 
   C
A cura pro meu vício de insistir
          D11
Nessa saudade que eu sinto
                F11+      G
De tudo que eu ainda não vi

( Am7  D11  Bm  Em  Am  D7  Bm  Em7 )

[Terceira Parte]

Am7
    Quem me dera ao menos uma vez
       D11
Acreditar por um instante 

Em tudo que existe
     Bm7
E acreditar que o mundo é perfeito
       Em
E que todas as pessoas são felizes

Am7
    Quem me dera ao menos uma vez
   D11
Fazer com que o mundo 

Saiba que seu nome
   Bm7
Está em tudo e mesmo assim
    Em
Ninguém lhe diz ao menos obrigado

Am7
    Quem me dera ao menos uma vez
D11
    Como a mais bela tribo
Bm7
    Dos mais belos índios
     Em
Não ser atacado por ser inocente

[Segunda Parte]

C  G7M/B        Am7
   Eu quis o perigo
           D/F#          G
E até sangrei sozinho entenda
   D/F#                    Em
Assim pude trazer você de volta pra mim
        C
Quando descobri que é sempre só você
          D11       G        D/F#
Que me entende do início ao fim

Em
   E é só você que tem 
   C
A cura pro meu vício de insistir
          D11
Nessa saudade que eu sinto
                F11+      G
De tudo que eu ainda não vi

[Final]

C
  Nos deram espelhos 
                   F11+  G
E vimos um mundo doente
                             (Final)
Tentei chorar e não consegui

[Final]

Parte 1 

E|-3-------2---0--------------------------------------|
B|-0-0-0---------0-0---3---1-------0------------------|
G|---0-0---2---0-0-0---------0-0-------2---0----------| (2x)
D|---0-0---------0-0---4---2-0-0---0---0---0----------|
A|-----------x-----------x-----------x---x---x--------|
E|-3-----3---x-3-----3---x-3-----3---x-2-x-3-x--------|
     ↑ ↓         ↑ ↓         ↑ ↓       

Parte 2

E|-3-------2---0---------------------------3----------|
B|-0-0-0---------0-0---3---1-------0-------3----------|
G|---0-0---2---0-0-0---------0-0-------2---0----------|
D|---0-0---------0-0---4---2-0-0---0---0---0----------|
A|-----------x-----------x-----------x---x-2----------|
E|-3-----3---x-3-----3---x-3-----3---x-2-x-3----------|
     ↑ ↓         ↑ ↓         ↑ ↓
Acordes para:

    0 comentários

    mostrar mais comentários

    Conseguiu tocar?

    292 tocaram 23 ainda não

    Grave um vídeo tocando Índios e mande pra gente!

    00:00 / 00:00
    outros vídeos desta música
    repetir qualidade Automático
    Outros vídeos desta música
    00:00 / 00:00
    Automático
    Capítulos
    • Tocando a Música
    • Dicas Iniciais / Equipamentos
    • Acordes da Primeira Parte da Intro
    • Tocando a Primeira Parte da Intro
    • Ensinando a Primeira Parte da Intro
    • Primeira Parte da Intro - Parte 1 de 2
    • Primeira Parte da Intro - Parte 2 de 2
    • Acordes da Segunda Parte da Intro
    • Tocando a Segunda Parte da Intro
    • Ensinando a Segunda Parte da Intro
    • Segunda Parte da Intro - Parte 1 de 8
    • Segunda Parte da Intro - Parte 2 de 8
    • Segunda Parte da Intro - Parte 3 de 8
    • Segunda Parte da Intro - Parte 4 de 8
    • Segunda Parte da Intro - Parte 5 de 8
    • Segunda Parte da Intro - Parte 6 de 8
    • Segunda Parte da Intro - Parte 7 de 8
    • Segunda Parte da Intro - Parte 8 de 8
    • Acordes da Primeira Parte
    • Tocando a Primeira Parte
    • Ensinando a Primeira Parte
    • Primeira Parte - Parte 1 de 4
    • Primeira Parte - Parte 2 de 4
    • Primeira Parte - Parte 3 de 4
    • Primeira Parte - Parte 4 de 4
    • Acordes da Segunda Parte
    • Tocando a Segunda Parte
    • Ensinando o Ritmo da Segunda Parte
    • Dicas para as repetições e final
    • Tocando o Final
    • Ensinando o Final
    • Final - Parte 1 de 2
    • Final - Parte 2 de 2
    • Encerramento
    • Ficha Técnica
    OK