Cifra Club

Epitáfio

Titãs

Cifra: Principal
exibições 2.372.413
Tom: G
Intro:  G5  D/F#  Em  G7  C  Cm  G5

   G5  D/F# Em  G7  C         Cm          G5
E|-----2----3---1---0-----------------------|
B|-3---3----0---0---1--1-1----4------3-1--3-|
G|-0---2----0---0---0------0--5--5--------0-|
D|-0----------------2---------5----5------0-|
A|------------------3---------3-----------0-|
E|-3---2----0---3-------------------------3-|


Primeira Parte:

G5       D/F#   Em     G7
  Devia ter amado mais
        C
Ter chorado mais
Cm                    G5
  Ter visto o sol nascer
G5       D/F#     Em       G7
  Devia ter arriscado mais
         C
E até errado mais
Cm                             G5
  Ter feito o que eu queria fazer


Segunda Parte:

   C   Cm  G5  E7  A7       D7
E|-0------------------------2-----2---------|
B|-1---4---3---3---2----2---3--1------------|
G|-0---5---0---1---0--0-----2---------------|
D|-2---5---0---0---2--------0---------------|
A|-3---3-----------0------------------------|
E|---------3---0----------------------------|

   C   Cm  G5  E7  Cm         G5
E|-0----------------------------3-3-3-3-3-3-|
B|-1---4---3---3---4------3-1-3-3-3-3-3-3-3-|
G|-0---5---0---1---5--5-------0-0-0-0-0-0-0-|
D|-2---5---0---0---5----5-----0-0-0-0-0-0-0-|
A|-3---3-----------3----------2-2-2-2-2-2-2-|
E|---------3---0--------------3-3-3-3-3-3-3-|

C         Cm      G5
  Queria ter aceitado
E7       A7             D7
  As pessoas como elas são
C      Cm             G5
  Cada um sabe a alegria
E7     Cm                  G5
  E a dor que traz no coração


Refrão:

   G5
E|-3-----3----2--3------------3-----2--3----|
B|-3-----3----3--3------3-----3-----3--3----|
G|-0--0--0--0-0--0--0---0--0--0--0--0--0--0-|
D|-0--0--0--0-0--0--0---0--0--0--0--0--0--0-|
A|------------------------------------------|
E|-3--3--3--3-3--3--3---3--3--3--3--3--3--3-|

   Am7                  Cm
E|-0-----0----0--0------3-----3-----5--3----|
B|-1-----1----1--1------4-----4-----3--3----|
G|-0--0--0--0-0--0--0---5--5--5--5--5--5--5-|
D|-2--2--2--2-2--2--0---5--5--5--5--5--5--5-|
A|-0--0--0--0-0--0--2---3--3--3--3--3--3--3-|
E|------------------------------------------|

   G5
E|-3-----3----2--3------------3-----2--3----|
B|-3-----3----3--3------3-----3-----3--3----|
G|-0--0--0--0-0--0--0---0--0--0--0--0--0--0-|
D|-0--0--0--0-0--0--0---0--0--0--0--0--0--0-|
A|------------------------------------------|
E|-3--3--3--3-3--3--3---3--3--3--3--3--3--3-|

   Am7                  Cm
E|-0-----0----0--0------3-------------------|
B|-1-----1----1--1------4-------------------|
G|-0--0--0--0-0--0--0---5-------------------|
D|-2--2--2--2-2--2--0---5-------------------|
A|-0--0--0--0-0--0--2---3-------------------|
E|------------------------------------------|


G5                     Am7
  O acaso vai me proteger
         Cm               G5
Enquanto eu andar distraído
G5                     Am7
  O acaso vai me proteger
         Cm
Enquanto eu andar


Variação da Intro:

   G5      D/F#    Em       G7
E|-------3-------2-------0------1-----------|
B|-----3-------3-------0----------0---------|
G|---0-------2-------0--------0-------------|
D|------------------------------------------|
A|------------------------------------------|
E|-3-------2-------0--------3---------------|

   C               Cm               G5
E|-----0-------0--------------------------3-|
B|---1---1---1---1-----4-------4--------3-3-|
G|-0-------0-------5-5---5---5---5----0---0-|
D|-2---------------5-------5----------------|
A|-3---------------3------------------------|
E|----------------------------------3-------|


Variação da Primeira Parte:

G5       D/F#      Em
  Devia ter complicado menos
G7       C
  Trabalhado menos
Cm                    G5
  Ter visto o sol se pôr

G5       D/F#        Em
  Devia ter me importado menos
G7         C
  Com problemas pequenos
Cm                 G5
  Ter morrido de amor


Variação Segunda Parte:

   C       Cm      G5       Em
E|-----0------------------------------------|
B|---0---1-----4-------3--------0-----------|
G|-0---------5---5-0-0---0----0---0---------|
D|-2-------5-------0--------2---------------|
A|-3-------3----------------2---------------|
E|-----------------3--------0---------------|

   A7              D7
E|-----------------------2-0h2p0------------|
B|-----2-------2-------1---------1----------|
G|-0-0---0-0-0---0---2-------------2--------|
D|-2-------2-------0------------------------|
A|-0-------0--------------------------------|
E|------------------------------------------|

   C       Cm      G5       Em
E|-----0------------------------------------|
B|---0---1-----4-------3--------0-----------|
G|-0---------5---5-0-0---0----0---0---------|
D|-2-------5-------0--------2---------------|
A|-3-------3----------------2---------------|
E|-----------------3--------0---------------|

   Cm              G5
E|-----------------3-3-3-3-3-3-3------------|
B|-----4-------4---3-3-3-3-3-3-3------------|
G|-5-5---5-5-5---5-0-0-0-0-0-0-0------------|
D|-5-------5-------0-0-0-0-0-0-0------------|
A|-3-------3--------------------------------|
E|-----------------3-3-3-3-3-3-3------------|

C         Cm      G5
  Queria ter aceitado
Em   A7           D7
  A vida como ela é

C        Cm           G5
  A cada um cabe alegrias
Em         Cm        G5
  E a tristeza que vier


Refrão Final:

G5                     Am7
  O acaso vai me proteger
         Cm               G5
Enquanto eu andar distraído
G                      Am7
  O acaso vai me proteger
         Cm
Enquanto eu andar
G5                     Am7
  O acaso vai me proteger
         Cm               G5
Enquanto eu andar distraído
G5                     Am7
  O acaso vai me proteger
         Cm
Enquanto eu andar


Repete Primeira Parte:

G5       D/F#      Em
  Devia ter complicado menos
G7       C
  Trabalhado menos
Cm                    G5
  Ter visto o sol se pôr
Acordes para:

    0 comentários

      mostrar mais comentários

      Conseguiu tocar?

      210tocaram4ainda não

      Grave um vídeo tocando Epitáfio e mande pra gente!

      00:00 / 00:00
      outros vídeos desta música
      repetirqualidadeautomática
      Outro vídeos desta música
        00:00 / 00:00
        automática
        Capítulos
        • Início
        • Tocando a Música
        • Acordes Introdução e Primeira Parte
        • Tocando Introdução e Primeira Parte
        • Ensinando Introdução e Primeira Parte
        • Acordes Segunda Parte
        • Tocando Segunda Parte
        • Ensinando Segunda Parte
        • Acordes Refrão
        • Tocando Refrão
        • Ensinando Refrão
        • Variação Introdução e Primeira Parte
        • Ensinando Variação Introdução e Primeira Parte
        • Variação Segunda Parte
        • Ensinando Variação Segunda Parte
        • Encerramento
        OK