Cifra Club

Teatro Dos Vampiros

Legião Urbana

Cifra: Principal (violão e guitarra)
exibições 1.471.854
Tom: G
[Intro] C  G/B  Am7  D
        C  G/B  Am7  D  G
        C  G/B  Am7  D
        C  G/B  Am7  D  G

[Dedilhado]

Parte 1 de 3
   C               G/B
E|------------------------------------------|
B|-----1-----1---------3-----3--------------|
G|---0-----0---0-----0-----0---0------------|
D|---------------2---------------0----------|
A|-3-----3---------2-----2------------------|
E|------------------------------------------|

Parte 2 de 3
   Am7             D
E|------------------------------------------|
B|-----1-----1---------3-----3--------------|
G|---0-----0---0-----2-----2---3------------|
D|---------------2-0-----0-------0----------|
A|-0-----0----------------------------------|
E|------------------------------------------|

Parte 1 de 3
   C               G/B
E|------------------------------------------|
B|-----1-----1---------3-----3--------------|
G|---0-----0---0-----0-----0---0------------|
D|---------------2---------------0----------|
A|-3-----3---------2-----2------------------|
E|------------------------------------------|

Parte 3 de 3
   Am7     D       G
E|------------------------------------------|
B|-----1-------3-------3-----3--------------|
G|---0---0---2---2---0-----0---0------------|
D|---------0---------------------0----------|
A|-0----------------------------------------|
E|-----------------3-----3------------------|

[Violão Solo]

Parte 1 de 4
E|------------------------------------------|
B|---5-----3---1-------3--------------------|
G|-----0------------------0-----------------|
D|-5-----4---2---2/4-4------4---------------|
A|------------------------------------------|
E|------------------------------------------|

Parte 2 de 4
E|---------------------2--------------------|
B|---5-----3---1---3-----3---0--------------|
G|-----0------------------------------------|
D|-5-----4---2---0---0-----0----------------|
A|------------------------------------------|
E|------------------------------------------|

Parte 3 de 4
E|------------------------------------------|
B|---5-----3---1-------3--------------------|
G|-----0------------------0-----------------|
D|-5-----4---2---2/4-4------4---------------|
A|------------------------------------------|
E|------------------------------------------|

Parte 4 de 4
E|------------------------------------------|
B|---5/7----7---------8-----8---------------|
G|------------0---------0-----0---0---------|
D|-5--/7--7-----7-7/9-----9-----9-----------|
A|------------------------------------------|
E|------------------------------------------|

[Primeira Parte]

 C                     G/B
Sempre precisei de um pouco de atenção
C
Acho que não sei quem sou
    G/B
Só sei do que não gosto
C                       G/B
  E nesses dias tão estranhos 
       Bb6(11+)                        C
Fica poeira se escondendo pelos cantos
C                 G/B
  Este é o nosso mundo
             C                 G/B
E o que é demais nunca é o bastante
              C                      G/B
E a primeira vez é sempre a última chance
         Bb6(11+)
Ninguém vê onde chegamos
                     C
Os assassinos estão livres, nós não estamos

[Dedilhado]

Parte 1 de 3
   C               G/B
E|------------------------------------------|
B|-----1-----1---------3-----3--------------|
G|---0-----0---0-----0-----0---0------------|(3x)
D|---------------2---------------0----------|
A|-3-----3---------2-----2------------------|
E|------------------------------------------|

Parte 2 de 3
   Bb6(11+)
E|------------------------------------------|
B|-----3-----3---------3-----3--------------|
G|---0-----0---0-----0-----0---0------------|
D|---------------0---------------0----------|
A|-1-----1---------1-----1------------------|
E|------------------------------------------|

Parte 3 de 3
   C
E|------------------------------------------|
B|-----5-----5---------5-----5--------------|
G|---0-----0---0-----0-----0---0------------|
D|---------------5---------------5----------|
A|-3-----3---------3-----3------------------|
E|------------------------------------------|

[Violão Solo]

Parte 1 de 3
E|---------3p0------------0-----------------|
B|---5--------------3-------3---------------|
G|-----0-------0------0---------------------|(3x)
D|-5-----5--------4-----4-----4/5-----------|
A|------------------------------------------|
E|------------------------------------------|

Parte 2 de 3
E|---------1-----------1--------------------|
B|---3-------3---3--------------------------|
G|-----0-----------0-----0---0--------------|
D|-3-----3-----3-----3-----3---3/5----------|
A|------------------------------------------|
E|------------------------------------------|

Parte 3 de 3
E|------------------------------------------|
B|-5-5-5-3-1-1------------------------------|
G|-0-0-0-0-0-0------------------------------|
D|-5-5-5-3-2-2------------------------------|
A|------------------------------------------|
E|------------------------------------------|

[Segunda Parte]

G
  Vamos sair! Mas não temos mais dinheiro

Os meus amigos todos estão procurando emprego
    F7M(11+)
Voltamos a viver como há dez anos atrás
     C/G
E a cada hora que passa

Envelhecemos dez semanas
G
  Vamos lá, tudo bem! Eu só quero me divertir

Esquecer, dessa noite ter um lugar legal pra ir
F7M(11+)
        Já entregamos o alvo e a artilharia
      C/G
Comparamos nossas vidas e esperamos que um dia
        G
Nossas vidas possam se encontrar

[Violão Solo]

Parte 1 de 5
E|---7-----7-----7-----7-----7--------------|
B|-----0-----0-----0-----0-----0------------|
G|-7-----7-----7-----7-----7----------------|
D|------------------------------------------|
A|------------------------------------------|
E|------------------------------------------|

Parte 2 de 5
E|---7-----7---------8---7---5--------------|
B|-----0-----0------------------------------|
G|-7-----7-----7-7/9---7---5----------------|
D|------------------------------------------|
A|------------------------------------------|
E|------------------------------------------|

Parte 3 de 5
E|---5-----5-----5-----5-----5--------------|
B|-----3-----3-----3-----3-----3------------|
G|-5-----5-----5-----5-----5----------------|
D|------------------------------------------|
A|------------------------------------------|
E|------------------------------------------|

Parte 4 de 5
E|---3-----3-----3-----3-------5------------|
B|-----0-----0-----0-----0------------------|
G|-4-----4-----4-----4-----4-5---5----------|
D|------------------------------------------|
A|------------------------------------------|
E|------------------------------------------|

Parte 5 de 5
E|-----8-8-8-7-5-5/7-7-7-7-5-3--------------|
B|-----0-0-0-0-0-0---0-0-0-0-0--------------|
G|-7/9-9-9-9-7-5-5/7-7-7-7-5-4--------------|
D|------------------------------------------|
A|------------------------------------------|
E|------------------------------------------|

( C  G/B  Am7  D )
( C  G/B  Am7  D  G )

[Primeira Parte]

C               G/B              C
  Quando me vi tendo de viver comigo apenas
         G/B
E com o mundo
C                       G/B
  Você me veio como um sonho bom
     Bb6(11+)
E me assustei
            C
Não sou perfeito eu não esqueço
C                    G/B
  A riqueza que nós temos
     C            G/B
Ninguém consegue perceber
C                    G/B   Bb6(11+)
  E de pensar nisso tudo,  eu, homem feito
 C
Tive medo e não consegui dormir

[Segunda Parte]

G
  Vamos sair! Mas não temos mais dinheiro

Os meus amigos todos estão procurando emprego
    F7M(11+)
Voltamos a viver como há dez anos atrás
     C/G
E a cada hora que passa

Envelhecemos dez semanas
G
  Vamos lá, tudo bem! Eu só quero me divertir

Esquecer, dessa noite ter um lugar legal pra ir
F7M(11+)
        Já entregamos o alvo e a artilharia
      C/G
Comparamos nossas vidas e mesmo assim
     G
Não tenho pena de ninguém

[Final] G  Em  D  
        G  Em  D 
        G  Em  D 
        G  Em  D  G 

[Violão Solo]

Parte 1 de 2
E|-7---8-7----3-3-3-3--5-5--x-x-------------|
B|-8---8-8----5-5-5-5--7-7--x-x-------------|
G|-0-0-0-0-0--0-0-0-0--0-0--x-x-------------|
D|-0-0-0-0-0--0-0-0-0--0-0--x-x-------------|
A|------------------------------------------|
E|------------------------------------------|
   ↓ ↓ ↓ ↓ ↓  ↓ ↓ ↓ ↓  ↓ ↓  ↓ ↑ 

Parte 2 de 2
E|-7---8-7----x-x-10-10-10-10--8--8--x-x----|
B|-8---8-8----x-x-12-12-12-12-10-10--x-x----|
G|-0-0-0-0-0--x-x--0--0--0--0--0--0--x-x----|
D|-0-0-0-0-0--x-x--0--0--0--0--0--0--x-x----|
A|------------------------------------------|
E|------------------------------------------|
   ↓ ↓ ↓ ↓ ↓  ↓ ↑  ↓  ↓  ↓  ↓  ↓  ↓  ↓ ↑
Acordes para:

    0 comentários

    mostrar mais comentários

    Conseguiu tocar?

    102 tocaram 7 ainda não

    Grave um vídeo tocando Teatro Dos Vampiros e mande pra gente!

    00:00 / 00:00
    outros vídeos desta música
    repetir qualidade Automático
    Outros vídeos desta música
    00:00 / 00:00
    Automático
    Capítulos
    • Início
    • Tocando a música
    • Acordes da introdução (violão 1)
    • Tocando introdução
    • Ensinando dedilhado da intro (parte 1)
    • Ensinando dedilhado da intro (parte 2)
    • Ensinando dedilhado da intro (parte 3)
    • Tocando dedilhado devagar (tablatura)
    • Ensinando intro (violão solo - parte 1)
    • Ensinando intro (violão solo - parte 2)
    • Ensinando intro (violão solo - parte 3)
    • Ensinando intro (violão solo - parte 4)
    • Tocando intro devagar (tab - violão solo)
    • Acordes da primeira parte
    • Tocando primeira parte
    • Ensinando dedilhado primeira parte (parte 1)
    • Ensinando dedilhado primeira parte (parte 2)
    • Ensinando dedilhado primeira parte (parte 3)
    • Tocando primeira parte devagar (tablatura)
    • Ensinando primeira parte (violão solo - parte 1)
    • Ensinando primeira parte (violão solo - parte 2)
    • Ensinando primeira parte (violão solo - parte 3)
    • Tocando primeira parte devagar (tablatura)
    • Acordes da segunda parte
    • Tocando segunda parte
    • Ensinando ritmo do restante da música
    • Ensinando segunda parte (violão solo - parte 1)
    • Ensinando segunda parte (violão solo - parte 2)
    • Ensinando segunda parte (violão solo - parte 3)
    • Ensinando segunda parte (violão solo - parte 4)
    • Ensinando segunda parte (violão solo - parte 5)
    • Acordes finais
    • Tocando trecho final
    • Ensinando ritmo do final
    • Ensinando final (violão solo - parte 1)
    • Ensinando final (violão solo - parte 2)
    • Encerramento
    OK