Cifra Club

Há Tempos

Legião Urbana

Cifra: Principal (violão e guitarra)
exibições 1.979.736
Tom: D
[Intro] D  Am7  D  C  G

   D
E|---5-----3-----2-----3-2------------------|
B|-----3-----3-----3-------3----------------|
G|-------2-----2-----2-------2--------------|
D|-0----------------------------------------|
A|------------------------------------------|
E|------------------------------------------|

   Am7
E|---3-----3-----3-----3-----3-----3--------|
B|-----1-----1-----1-----1-----1-----1------|
G|-------0-----0-----0-----0-----0-----0----|
D|------------------------------------------|
A|-0----------------------------------------|
E|------------------------------------------|

   D
E|---5-----3-----2-----3-2------------------|
B|-----3-----3-----3-------3----------------|
G|-------2-----2-----2-------2--------------|
D|-0----------------------------------------|
A|------------------------------------------|
E|------------------------------------------|

   C                G     
E|---3-----3-----3--------3-----------------|
B|-----1-----1----------3---3---------------|
G|-------0-----0------0-------0-------------|
D|------------------------------------------|
A|-3----------------------------------------|
E|------------------3-----------------------|

[Primeira Parte]

D             Am7                D                Am7        
 Parece cocaína, mas é só tristeza, talvez tua cidade
           D                    Am7                       
 Muitos temores nascem do cansaço e da solidão
 D               Am7                                     
  E o descompasso   e o desperdício
     G                      Em
 Herdeiros são agora da virtude que perdemos
 D                   Am7           D              Am7       
  Há tempos tive um sonho, não me lembro, não me lembro
 F                     C   F                       C
  Tua tristeza é tão exata   e hoje o dia é tão bonito
 D                  Am7  D                       G
  Já estamos acostumados   a nem termos mais nem isso

     D              Am7           D            Am7       
 Os sonhos vêm, os sonhos vão, o resto é imperfeito
     D                Am7                                 
 Disseste que se tua voz 
                  D                    Am7                
 Tivesse força igual à imensa dor que sentes
       G                  Em
 Teu grito acordaria não só a tua casa
        D               Am7                                   
 Mas a vizinhança inteira 
 D             Am7                                        
  E há tempos nem os santos 

[Segunda Parte]

  F                C
 Têm ao certo a medida da maldade
       F                          C
 E há tempos são os jovens que adoecem
       F                       C
 E há tempos o encanto está ausente
                       F
 E há ferrugem nos sorrisos
                           C
 E só o acaso estende os braços 
                           A4 A A7
 A quem procura abrigo e proteção

         D               G
 Meu amor, disciplina é liberdade
 D             G        D              G
  Compaixão é fortaleza, ter bondade é ter coragem
        D                      C             G    D
 Lá em casa tem um poço, mas a água é muito limpa
Acordes para:
    Composição: Dado Villa-Lobos / Marcelo Bonfá / Renato Russo Colaboração e revisão:
    • Thiago Chaves
    • Saulo Henrique
    • Cleiton

    0 comentários

    mostrar mais comentários

    Conseguiu tocar?

    278 tocaram 5 ainda não

    Grave um vídeo tocando Há Tempos e mande pra gente!

    00:00 / 00:00
    outros vídeos desta música
    repetir qualidade Automático
    Outros vídeos desta música
    00:00 / 00:00
    Automático
    Capítulos
    • Início
    • Acorde da introdução
    • Tocando introdução
    • Ritmo da introdução
    • Acordes da primeira parte
    • Tocando primeira parte
    • Ritmo da primeira parte
    • Acordes da segunda parte
    • Tocando segunda parte
    • Ritmo da segunda parte
    • Acordes da terceira parte
    • Tocando terceira parte
    • Encerramento
    OK