Papercut

Linkin Park

 Linkin Park
Afinação:  C#,A,D,G

Ótima música. Preste atenção no tempo. 

Refrão (Em torno dos 10 segundos)
G |----------------------
D |------2-1-------------x4
A |----------2-----------
C#|0-0-0-----------1-1-3-

Verso
G |-----------------------------
D |-----------------------------x4
A |-----------------------------
C#|0-0-0--8---8-8-8-7-7---1-1-3-

Verso (Variação) 
G |---------------------------- 
D |----------------------------x1
A |----------------------------
C#|0-0-0--8---8-8-8-7-7----xxx-

Verso x2

Verso (Variação) x1

Refrão x4

Verso x4

Verso (Variação) x1

Verso x2

Verso (Variação) x1

Refrão x8

Pré-Ponte
G |-------------------------------------------------------------------------
D |-------------------------------------------------------------------------x1
A |-------------------------------------------------------------------------
C#|0-0-0---1-1-3-0-0-0---1-1-3-0-0-0---1-1-3-0-0-0-0-0-0-0-0-0-0-0-0-0-0-0-0

Ponte
G |----------------------------------------------
D |----------------------------------------------x3
A |0-0-0--0--0-0-2-2--2--2----------------------- 
C#|------------------------5-5-5--5--5-3-5-5--5-5

Ponte (Variação 1)
G |------------------------------------------------
D |------------------------------------------------x1
A |0-0-0--0--0-0-2-2--2--2-------------7h8h9--7--4-
C#|------------------------5-5-5--5--5-------------

Ponte x3

Ponte (Variação 2)
G |--------------------------------------------------
D |--------------------------------------------------x1
A |0-0-0--0--0-0-2-2--2--2-0-0-0--0--0--0-0-2-2--2--2
C#|--------------------------------------------------

Ponte (Variação 3)
G |-------------------------------------------------------
D |-------------------------------------------------------x1
A |0-0-0--0--0-0-2-2--2--2--------------------------------
C#|------------------------5-5-5--5--5-3-5-5---1-1-3-0-0-0

Comentários 0

Composição: Mike Shinoda
Esse não é o compositor? Avise-nos.
Contribuição: DaniBassBoy
Consegui tocarAinda não conseguiram tocar essa música. Seja o primeiro!
    Não consegui tocar
    publicidade
    fechar