Tom: B
		
Intro: B
Riff 1:

E|-----------------------------------------|
B|---12-12-12-12-12-12-11-11-11-12-12-12---|
G|---11-11-11-11-11-11-11-11-11-11-11-11---|
D|---9--9--9--9--9--9--9--9--9--9--9--9----|  (2x)
A|-----------------------------------------|
E|-----------------------------------------|


Riff 2:

E|-----------------------|
B|-----------------------|
G|-----------------------|
D|---5/9-8-8\1-1-1/4-4---|  (2x)
A|-----------------------|
E|-----------------------|



E|-----------------------|
B|-----------------------|
G|-----------------------|
D|---5/9-8-8\1-1-1/4-8/13|
A|-----------------------|
E|-----------------------|



Parte 1:
B
Ele tem ciúmes de mim
   G#m
Amor furioso, de quem sou refém
 F#                            E
Feito dependente de Sua misericórdia
  B                                G#m
Quando de repente eu não percebo as dores por causa da glória
      F#                          E
Eu vejo então a beleza em Ti e o afeto que Sentes por mim
Riff 3:
E|-------|       e|-------|       e|-------|
B|---7---|       B|---7---|       B|---5---|
G|---8---|       G|---6---|       G|---4---|
D|---9---|       D|---4---|       D|---2---|
A|-------|       A|-------|       A|-------|
E|-------|       E|-------|       E|-------|


E|----------------|       e|-------|       e|-----------7---|
B|---7------------|       B|---7---|       B|---5---4/7-----|
G|---8-------7----|       G|---6---|       G|---4-----------|
D|---9---6h8------|       D|---4---|       D|---2-----------|
A|----------------|       A|-------|       A|---------------|
E|----------------|       E|-------|       E|---------------|



B
Deus
               G#m
Me ama tanto assim
            F#
Como Ele me ama
            E
Me ama tanto assim
Riff 4:

E|-----------------------|         e|-----|
B|-----------------------|         B|-----|
G|---4--4/6--6/8--8/11---|         G|--4--|
D|-----------------------| (3x)    D|-----|
A|---2--2/4--4/6--6/9----|         A|--2--|
E|-----------------------|         E|-----|


Riff 5:

E|--------------------|            e|-------|
B|---12-11/4-4--4/7---|            B|---12--|
G|--------------------|            G|-------|
D|---9--8/1--1--1/4---| (3x)       D|---9---|
A|--------------------|            A|-------|
E|--------------------|            E|-------|



Refrão:
       B
Ele me ama, tanto
   G#m
Me ama, tanto
   F#
Me ama, tanto
     E
Ele ama

       B
Ele me ama, tanto
   G#m
Me ama, tanto
   F#
Me ama, tanto
     E
Ele ama
Solo 1:

E|----------------------------------------------------------|
B|-----------------10/12-11-11\7-7-7/12-12-12/16~-16b-12~---|
G|---8-8/11-11/13-------------------------------------------|
D|----------------------------------------------------------|
A|----------------------------------------------------------|
E|----------------------------------------------------------|



Parte 2:
  B
És minha herança e sou Tua porção
 G#m
Atraído pela redenção no olhar
      F#                                  E
Se a graça é como um oceano, estou me afogando
    B
Os céus e a terra se encontram
            G#m
E o meu coração é tomado em grande furor
         F#
E eu não perco meu tempo em lamentos
               E
Quando eu me lembro que

Refrão:
       B
Ele me ama, tanto
   G#m
Me ama, tanto
   F#
Me ama, tanto
     E
Ele ama

       B
Ele me ama, tanto
   G#m
Me ama, tanto
   F#
Me ama, tanto
     E
Ele ama
Riff 5:

E|--------------------|            e|-------|
B|---12-11/4-4--4/7---|            B|---12--|
G|--------------------|            G|-------|
D|---9--8/1--1--1/4---| (3x)       D|---9---|
A|--------------------|            A|-------|
E|--------------------|            E|-------|


Riff 5:

E|--------------------|            e|-------|
B|---12-11/4-4--4/7---|            B|---12--|
G|--------------------|            G|-------|
D|---9--8/1--1--1/4---| (3x)       D|---9---|
A|--------------------|            A|-------|
E|--------------------|            E|-------|


Solo 2:

E|----------------------------------------------------|
B|----------------11/14~-14/16-16~---9/12-11-7/9-7~---|
G|---8-8/11-11~---------------------------------------|
D|----------------------------------------------------|
A|----------------------------------------------------|
E|----------------------------------------------------|


Solo 3:

E|----------------------------|
B|---------------7------------|
G|---4/6-8---6/8-----2/4-6----|
D|----------------------------|
A|----------------------------|
E|----------------------------|



Refrão:
       B
Ele me ama, tanto
   G#m
Me ama, tanto
   F#
Me ama, tanto
     E
Ele ama

Uô ô ô ô  ( B  G#m  F#  E )
Riff 2:

E|-----------------------|            e|------------------|
B|-----------------------|            B|---16--16/17\16---|
G|-----------------------|            G|------------------|
D|---5/9-8-8\1-1-1/4-4---| (3x)       D|---13--13/14\13---|
A|-----------------------|            A|------------------|
E|-----------------------|            E|------------------|


Riff 2:

E|-----------------------|            e|---------------------|
B|-----------------------|            B|---------------------|
G|-----------------------|            G|---8--8--8--8/9--4---|
D|---5/9-8-8\1-1-1/4-4---| (3x)       D|---------------------|
A|-----------------------|            A|---6--6--6--6/7--2---|
E|-----------------------|            E|---------------------|

119.262 exibições

Comentários 6

  • Bela Bela: Postado em 25/11/2014 20:07

    Video aula!

  • danillo.alves.7798 danillo.alves.7798: Postado em 15/12/2013 20:24

    Sou foda

  • almeiaaa almeiaaa: Postado em 13/12/2012 15:33

    video aula!!!!!!!!!!!!

  • Dan Dan: Postado em 27/05/2012 16:12

    No riff inicial ele usa o slide, se voce usar um slide de aço fica melhor, dá esse som mais metálico. Use distortion e captador da ponte =)

  • Dan Dan: Postado em 27/05/2012 16:09

    Creio eu que ele usa o chorus e é claro um delay leve e reverb básico.. TALVEZ ele use também um pouquinho só de overdrive.

  • ojuninhooo ojuninhooo: Postado em 04/05/2012 10:35

    Qual é o efeito pra guitarra no inicio da musica??

Composição: Sabe quem é o compositor? Envie pra gente. Contribuição: Dan Correções: Anso »
Exibir acordes »
publicidade
fechar