O Velho e o Moço

Los Hermanos

 Los Hermanos
Tom: A#
		
Intro 4x: E7M  C#m9


   E7M    C#m9   G#m     A    C#m (Refrão)  C#m (Verso)   F#m     C      E      E*                                                 
E|--0------0------4------5-----9------------4------------2------8------0------12
B|--9------0------4------5-----9------------5------------2------8------0------12
G|--8------8------4------6-----9------------6------------2------9------1------13
D|--9------9------6------7-----11-----------6------------4------10-----2------14
A|--7------7------6------7-----11-----------4------------4------10-----2------14
E|--0------9------4------5-----9------------0------------2------8------0------12



E7M            C#m9
  Deixo tudo assim
                   G#m
Não me importo em ver
            E7M
A idade em mim,

Ouço o que convém.
C#m9           G#m
   eu gosto é do gasto

E7M            C#m9
  sei do incômodo
             G#m
E ela tem razão
              E7M
Quando vem dizer

Que eu preciso sim
C#m7              G#m
   de todo o cuidado

         E7M
E se eu fosse
     C#m         G#m
O primeiro a voltar
        E7M
Pra mudar o que eu fiz,
        C#m            G#m
Quem então agora eu seria?

Refrão:

C#m       E7M
   tanto faz
F#m               A       C#m
   que o que não foi não é
                  E7M
Eu sei que ainda vou voltar...
    A             C
Mas eu quem será?

( E7M  G#m/C# ) (4x)

E7M            C#m9
  deixo tudo assim,
                  G#m
Não me acanho em ver
           E7M
Vaidade em mim

Eu digo o que condiz
C#m9                   G#m
   eu gosto é do estrago

E7M            C#m
  sei do escândalo
               G#m
E eles têm razão
              E7M
Quando vêm dizer

Que eu não sei medir
C#m9                 G#m
  nem tempo e nem medo

         E7M
E se eu for
     C#m         G#m
O primeiro a prever
      E7M
E poder desistir
       C#m9        G#m
Do que for dar errado?

C#m    E7M           F#m          A
(ahhhh) ora, se não sou eu quem mais
         C#m                  E7M
Vai decidir o que é bom pra mim?
    F#m           A
Dispenso a previsão!
 C#m E7M          F#m       A
Ah,   se o que eu sou é também
             C#m     E7M
O que eu escolhi ser
  A                C
Aceito a condição
 
E7M C#m9 (Base do solo)

Solo: (guitarra marcelo camelo)


E|-11--9------9-----------------------|
B|--------12----12---9-----9---12---9-|
G|----------------------11------------|
D|------------------------------------|
A|------------------------------------|
E|------------------------------------|



E|-11--9------9-9-----9---11--12--11--9--------|
B|--------12-------12--------------------12----|
G|---------------------------------------------|
D|---------------------------------------------|
A|---------------------------------------------|
E|---------------------------------------------|



E|-11--9------9-----------------------|
B|--------12----12---9-----9---12---9-|
G|----------------------11------------|
D|------------------------------------|
A|------------------------------------|
E|------------------------------------|



E|----------------------------------|
B|-------------7s9--9--9---7--------|
G|---8--9--6------------------9--8--|
D|----------------------------------|
A|----------------------------------|
E|----------------------------------|



E|-------------------------------7------|
B|-------------7s9--9--9---7--9-----9/4-|
G|---8--9--6----------------------------|
D|--------------------------------------|
A|--------------------------------------|
E|--------------------------------------|



E|----------------------------------|
B|-------------7s9--9--9---7--------|
G|---8--9--6------------------9--8--|
D|----------------------------------|
A|----------------------------------|
E|----------------------------------|



E|-------------------------------7------|
B|-------------7s9--9--9---7--9-----9~*-|  
G|---8--9--6----------------------------|   
D|--------------------------------------|   
A|--------------------------------------|
E|--------------------------------------|


( E7M  C#m9 )
Vou levando assim
Que o acaso é amigo
Do meu coração
Quando fala comigo,
Quando eu sei ouvir...
328.225 exibições

Comentários 7

  • Daniel Daniel: Postado em 09/10/2014 23:33

    O ritmo por favor

  • Paulo Augusto Paulo Augusto : Postado em 07/05/2014 12:06

    e o ritmo ??

  • havik havik: Postado em 22/12/2013 20:49

    tá errada sim. a cifra é meio tom abaixo em relação ao que está aí.

  • Lucasradical7 Lucasradical7: Postado em 02/10/2013 13:49

    esta errada

    • felipe felipe: Postado em 07/11/2013 20:35

      amigo, está certa sim E7M troque por E e Abm7 troque por G#m sem o dedo 4

  • Felipe Felipe: Postado em 20/04/2013 00:23

    linda de essa musica, realmente faz refletir! o futuro aguarda, a velice espera, então vamos viver o que ha p viver.

  • rockinmind rockinmind: Postado em 27/10/2011 10:43

    Linda!

Composição: Biagio Antonacci / N. Rodgers / Rouge
Esse não é o compositor? Avise-nos.
Contribuição: Marquinhos Correções: cassiocosta , Moog e mais 3 »
Exibir acordes »
publicidade
fechar