Los Hermanos

O Velho e o Moço

352.847 exibições
Tom: D#
Intro 4x: D# Cm7



D#            Cm7
  Deixo tudo assim
                   Gm7
Não me importo em ver
            D#
A idade em mim,

Ouço o que convém.
Cm7           Gm7
   eu gosto é do gasto

D#            Cm7
  sei do incômodo
             Gm7
E ela tem razão
              D#
Quando vem dizer

Que eu preciso sim
Cm7              Gm7
   de todo o cuidado

         D#
E se eu fosse
     Cm7         Gm7
O primeiro a voltar
        D#
Pra mudar o que eu fiz,
        Cm7            Gm7
Quem então agora eu seria?

Refrão:

 Cm       D#
(ahh)   tanto faz
Fm               G#       Cm
   que o que não foi não é
                  D#
Eu sei que ainda vou voltar...
  Fm            B
Mas eu quem será?

( D#  Cm7 ) solo (4x)


E|--10-8----8---------------10-8----8-8----8-10-11-10-8----10-8----8-----------------------------------|
B|-------11---11-8---8-11-8------11-----11--------------11------11---11-8---8-11-8--------8-8----8-11-8|
G|----------------10-----------------------------------------------------10--------7-8--------10-------|
D|-------------------------------------------------------------------------------------10--------------|
A|-----------------------------------------------------------------------------------------------------|
E|-----------------------------------------------------------------------------------------------------|


D#            Cm7
  deixo tudo assim,
                  Gm7
Não me acanho em ver
          D#
Vaidade em mim

Eu digo o que condiz
Cm7                   Gm7
   eu gosto é do estrago

D#            Cm7
  sei do escândalo
               Gm7
E eles têm razão
              D#
Quando vêm dizer

Que eu não sei medir
Cm7                 Gm7
  nem tempo e nem medo

         D#
E se eu for
     Cm7         Gm7
O primeiro a prever
      D#
E poder desistir
       Cm7        Gm7
Do que for dar errado?

Cm     D#               Fm        G#
(ahhhh) ora, se não sou eu quem mais
         Cm                  D#
Vai decidir o que é bom pra mim?
    Fm           G#
Dispenso a previsão!
 Cm  D#          Fm       G#
Ah,   se o que eu sou é também
             Cm     D#
O que eu escolhi ser
  G#               B
Aceito a condição
 
D# Cm7 (Base do solo)

Solo: (guitarra marcelo camelo)


E|-10--8------8-----------------------|
B|--------11----11---8-----8---11---8-|
G|----------------------10------------|
D|------------------------------------|
A|------------------------------------|
E|------------------------------------|


E|-10--8------8-8-----8---10--11--11--8--------|
B|--------11-------11--------------------11----|
G|---------------------------------------------|
D|---------------------------------------------|
A|---------------------------------------------|
E|---------------------------------------------|


E|-10--8------8-----------------------|
B|--------11----11---8-----8---11---8-|
G|----------------------10------------|
D|------------------------------------|
A|------------------------------------|
E|------------------------------------|


E|----------------------------------|
B|-------------6s8--8--8---6--------|
G|---7--8--5------------------8--7--|
D|----------------------------------|
A|----------------------------------|
E|----------------------------------|


E|-------------------------------6------|
B|-------------6s8--8--8---6--8-----8/3-|
G|---7--8--5----------------------------|
D|--------------------------------------|
A|--------------------------------------|
E|--------------------------------------|


E|----------------------------------|
B|-------------6s8--8--8---6--------|
G|---7--8--5------------------8--7--|
D|----------------------------------|
A|----------------------------------|
E|----------------------------------|


E|-------------------------------6------|
B|-------------6s8--8--8---6--8-----8~*-|  
G|---7--8--5----------------------------|   
D|--------------------------------------|   
A|--------------------------------------|
E|--------------------------------------|


( D#  Cm7 )x4
Vou levando assim
Que o acaso é amigo
Do meu coração
Quando fala comigo,
Quando eu sei ouvir...
    Composição: Rodrigo AmaranteColaboração e revisão:
    • JefinhoSenna
    • alfredepressao
    • cassiocosta
    • mark.pots
    • +6

    Comentários 8

    • Melissa Melissa: Postado em 06/06/2015 17:20

      façam a videoaula, por favor!

    • Daniel Daniel: Postado em 09/10/2014 23:33

      O ritmo por favor

    • Paulo Augusto Paulo Augusto : Postado em 07/05/2014 12:06

      e o ritmo ??

    • havik havik: Postado em 22/12/2013 20:49

      tá errada sim. a cifra é meio tom abaixo em relação ao que está aí.

    • Lucasradical7 Lucasradical7: Postado em 02/10/2013 13:49

      esta errada

      • felipe felipe: Postado em 07/11/2013 20:35

        amigo, está certa sim E7M troque por E e Abm7 troque por G#m sem o dedo 4

    • Felipe Felipe: Postado em 20/04/2013 00:23

      linda de essa musica, realmente faz refletir! o futuro aguarda, a velice espera, então vamos viver o que ha p viver.

    • rockinmind rockinmind: Postado em 27/10/2011 10:43

      Linda!

    conseguiu tocar?

    • felipewill.delfino
    • Josef
    • Lauro
    • Danilo
    • lucas.menezes.543908
    • felipe
    • glauberpontes
    • •••

    covers

    Grave um vídeo tocando O Velho e o Moço e mande pra gente!

    Ex.: http://www.youtube.com/watch?v=0IvSvIwGdwk
    ver covers de outras músicas »
    0:00 / 0:00

    Capítulos

      2 versões de guitarradificuldadeexibiçõescontribuição e correção
      play/pausefechar subir/descer velocidade
      6ª corda E5ª corda A4ª corda D3ª corda G2ª corda B1ª corda E
        acordes
        publicidad
        fechar
        ok