Pois é

Los Hermanos

 Los Hermanos
Tom: G
		
Intro:


     Am7     D7     Em7       D
E|-7p5-----8---------------2-----|
B|----5------7----8------------3-|
G|--------------------9------4---| Executar
D|-5-------7--------9------0-----| 2 vezes
A|----------------7--------------|
E|-------------------------------|


Am7       D7 Em7 D
     Pois é,     não deu
Am7  D7          Em7       D
     Deixe assim como está,  sereno
Am7  D7     Em7  D
     Pois é,     de Deus
Am7  D7       Em7        D
     Tudo aquilo que não se  pode ver

C                            (só os baixos - C  B)   Em
  E ao amanhã a gente não diz
C                             G
  E ao coração que teima em bater

      G                            G7+
E|-------------------------------2-| Para finalizar a frase
B|-3---3---3-----3---3-----3-----3-|
G|-0---0---0h2---0---0h2---2h4---4-| Guitarra 1 - faz os acordes
D|-0---0---0-----0---0-----0-----0-| Guitarra 2 - faz em riff
A|---------------------------------|
E|-3---3---3-----3---3-----3-----3-| Também dá para executar com 1 guitarra


                  Am7      D     G
Avisa que é de se entregar o viver

      G                            G7+
E|-------------------------------2-| Para finalizar a frase
B|-3---3---3-----3---3-----3-----3-|
G|-0---0---0h2---0---0h2---2h4---4-| Guitarra 1 - faz os acordes
D|-0---0---0-----0---0-----0-----0-| Guitarra 2 - faz em riff
A|---------------------------------|
E|-3---3---3-----3---3-----3-----3-| Também dá para executar com 1 guitarra


               C  C6         D7  D7(4)
Avisa que é de se    entregar o viver


     Am7     D7     Em7       D
E|-7-5-----8---------------2-----| Executar 2 vezes
B|----5------5----8------------3-|
G|--------------------9------4---| Guitarra 1 - faz os acordes
D|-5-------7--------9------0-----| Guitarra 2 - faz em riff
A|----------------7--------------|
E|-------------------------------|


Am7       D7 Em7  D
     Pois é,      vá até
Am7  D7       Em7       D
     Onde o destino não previu
Am7      D7   Em7  D
     Sem mais,     vá atrás
Am7  D7      Em7         D
     Vou até onde eu conseguir

C                               (só os baixos - C  B)   Em
  Deixe o amanhã e gente sorrir
C                             G
  Que o coração já quer descansar

      G                      G7+
E|-------------------------2--| Para finalizar a frase
B|-3-3-3-----3---3----3----3--|
G|-0-0-0h2p0-0h2-0h2--2h4--4--| Guitarra 1 - faz os acordes
D|-0-0-0---0-0---0----0----x--| Guitarra 2 - faz em riff
A|-x-x-x---x-x---x----x----x--|
E|-3-3-3---3-3---3----3----3--| Também dá para executar com 1 guitarra


             Am7          D      G
Clareia minha vida, amor, no olhar

      G                      G7+
E|-------------------------2--| Para finalizar a frase
B|-3-3-3-----3---3----3----3--|
G|-0-0-0h2p0-0h2-0h2--2h4--4--| Guitarra 1 - faz os acordes
D|-0-0-0---0-0---0----0----x--| Guitarra 2 - faz em riff
A|-x-x-x---x-x---x----x----x--|
E|-3-3-3---3-3---3----3----3--| Também dá para executar com 1 guitarra


              C          C6  D7  D7(4)
Clareia minha vida, amor,    no olhar


     Am7     D7     Em7       D
E|-7p5-----8---------------2-----|
B|----5------7----8------------3-|
G|--------------------9------4---| Executar
D|-5-------7--------9------0-----| 3 vezes
A|----------------7--------------|
E|-------------------------------|



     Am7     D7     Em7
E|-7p5-----8--------|
B|----5------7----8-|
G|------------------|
D|-5-------7--------|
A|----------------7-|
E|------------------|
Texto Colunas
Alterar tom ½ tom ½ tom
afinação acordes na letra esconder tabs mais »
131.834 exibições

Comentários (1)

  • Ventura Ventura: Postado em 31/07/2012 20:56

    si la mi do fa# sol mi fa# re
    20-32-42-21-44-30-42-44-40

Composição: Dann Gallucci / Irwan Simanjuntak / Nigel Hendroff
Esse não é o compositor? Avise-nos.
Contribuição: betoboy Correções: marcos , IamHudson e mais 8 »
  1. Tudo Que Você Quiser - Luan Santana Manteve-se 5.417 exibições
  2. Lepo Lepo - Psirico Manteve-se 3.901 exibições
  3. Mozão - Lucas Lucco Manteve-se 3.749 exibições
  4. Logo Eu - Jorge e Mateus Manteve-se 3.341 exibições
  5. Gaveta - Fernando e Sorocaba Manteve-se 2.999 exibições
  6. Só Os Loucos Sabem - Charlie Brown Jr. Manteve-se 2.698 exibições
  7. Pra Você - Onze:20 Manteve-se 2.391 exibições
  8. Tempo Perdido - Legião Urbana Manteve-se 2.189 exibições
  9. Fui Fiel - Gusttavo Lima Manteve-se 2.019 exibições
  10. Na Linha do Tempo - Victor e Leo Manteve-se 1.925 exibições
  1. Jorge e Mateus- Manteve-se 20.025 exibições
  2. Legião Urbana- Manteve-se 17.810 exibições
  3. Luan Santana- Manteve-se 15.901 exibições
  4. Charlie Brown Jr.- Manteve-se 15.521 exibições
  5. Fernandinho- Manteve-se 13.364 exibições
  6. Thalles Roberto- Manteve-se 10.046 exibições
  7. Aline Barros- Manteve-se 9.582 exibições
  8. Católicas- Manteve-se 9.431 exibições
  9. Victor e Leo- Manteve-se 9.367 exibições
  10. Gusttavo Lima- Manteve-se 8.996 exibições
Exibir acordes »

Cifras e tabs

Fórum Cifra Club

Aprenda

Cifra Club News

Mais Serviços Cifra Club ID

Studio Sol

©1996 - 2014 Cifra Club · o primeiro, maior e mais acessado do Brasil · 329 mil músicas · 5.9 milhões pessoas cadastradas

publicidade
fechar