Um Par

Los Hermanos

 Los Hermanos
Tom: F
Afinação: Eb Ab Db Gb Bb Eb
		
Intro 2x:

     Dm (3x)  Bb (3x)  F (2x)          Dm (3x) Bb (3x) F (1x)
E|-1--------1--------1----------------1-------1-------1------------|
B|-3--------3--------1----------------3-------3-------1------------|
G|-2--------3--------2---3p2p0-2p0----2-------3-------2------------|
D|----------3--------3-------------3-0--------3-------3------------|
A|----------1--------3------------------------1-------3------------|
E|----------------1-----------------------------------1------------|



Dm    Bb             F         Gm
Mesmo quando ele consegue o que ele quis
Bb  C#°    Bb  C#°
Quando tem já não quer
Dm     Bb         F     Gm
Acha alguma coisa nova na tv
Bb  C#°   Bb   C#°
E que não pode ter
Em7       A7   Em7            A7
Deixa de gostar, larga mão do que ele já tem
Em7      A7       Em7           A7
Passa então a amar, tudo aquilo que não ganhou

( Dm  Bb  F  Gm )

( Bb  C#°  Bb  C#° )

Dm    Bb             F    Gm
Dê motivo pra outra vez acreditar
Bb C#°   Bb  C#°
Na cascata da vez
Dm     Bb           F    Gm
Que você comprou assim 0 + 10
Bb  C#°  Bb  C#°
Um presente pra mim
Em7         A7     Em7            A7
Mas se eu perguntar, de onde veio esse agrado
Em7       A7   Em7               A7            Dm  Bb  F  Gm
Você vai gritar, diz que é homem feito, sei não....
    Bb  C#°       Bb  C#°
Ah, faça-me um favor!
Gm            Dm
Diga ao menos o que foi,
Gm           Dm
E se eu faltei em te explicar
Gm              Bb
Diz que a gente sempre foi
C      Bb (Manter durante o solo dos metais, até começar o solo de guitarra)
Um par...

E|---------------------------------------------------------------
B|---------------------------------------------------------------
G|-7-9-10-9-7--------------------------------------s12-10-9-7----
D|------------7~---7-----------------------s10-7-----------------
A|-------------------8-10-8-7-5~---5-7-8~------------------------
E|---------------------------------------------------------------



( Dm  Bb  F  Gm  Bb  C#°  Bb  C#° ) (2x) 
Solo:

E|--13-13-13-12-10-12-13-13s15s17-15--13s15-15-10-10s12-------- 
B|--------------------------------17--------17----------13\----
G|-------------------------------------------------------------    
D|-------------------------------------------------------------
A|-------------------------------------------------------------
E|-------------------------------------------------------------



E|--13-13-13-12-10-12-13-13s15-13-12--13s15-15-10-10s12--------  
B|------------------------------------------17----------13\----
G|-------------------------------------------------------------    
D|-------------------------------------------------------------
A|-------------------------------------------------------------
E|-------------------------------------------------------------



Dm                      Bb
Sai domingo diz que é o dia de jogar,
F           C#°      A
   Mas que jogo eu não sei
Dm                 Bb
Fica até segunda o dia clarear,
F          C#°    A
   E troféu  não se vê
Em7         A7  Em7             A7
Entra sem falar, sai correndo e volta outra vez
Em7     A7      Em7            A7
Sem cumprimentar, nem parece aquele, eu rezo
   Dm      Bb    F       Gm
Ai Deus do céu! Alguém no chão,
Bb            C#°        Bb          C#°
diga-me o que foi, que eu deixei faltar
Dm              Bb     F     Gm
O que eu não consigo entender,
Bb             C#°          Bb      C#°            Dm  Bb  F  Gm
como é que um filho meu é tão diferente assim...
   Bb C#°   Bb   C#°
de mim me faz entender!

( Dm  Bb  F  Gm  Bb  C#°  Bb  C#° ) (2x) 
Solo:

E|--13-13-13-12-10-12-13-13s15s17-15--13s15-15-10-10s12-------- 
B|--------------------------------17--------17----------13\----
G|-------------------------------------------------------------  
D|-------------------------------------------------------------
A|-------------------------------------------------------------
E|-------------------------------------------------------------



E|--13-13-13-12-10-12-13-13s15-13-12--13s15-15-10-10s12-------- 
B|------------------------------------------17----------13\----
G|-------------------------------------------------------------     
D|-------------------------------------------------------------
A|-------------------------------------------------------------
E|-------------------------------------------------------------


Metal no final do solo:


E|-----------------
B|-s11-10-8----10--
G|----------10-----

166.899 exibições

Comentários 1

  • peu_94 peu_94: Postado em 29/07/2011 09:09

    yeah

Composição: Rodrigo Amarante
Esse não é o compositor? Avise-nos.
Contribuição: junhão Correções: DanielBlast , Fabi e mais 5 »
Exibir acordes »
publicidade
fechar