Falando Sério

Luan Santana

 Luan Santana
Tom: G
		
(intro) C D E E7


E |--7--7--5--3--3----3----3------5--7----|
B |-----------------5----5----5-----------|
G |---------------------------------------|
D |---------------------------------------|
A |---------------------------------------|
E |---------------------------------------|



E |--7--7--5--3----3---3---3-----5---3----------|
B |------------------5---5---5----------5---3---|       (2x)
G |---------------------------------------------|
D |---------------------------------------------|
A |---------------------------------------------|
E |---------------------------------------------|



E |--7--5--3--3----3----5/7--5--3--3---------------------|
B |--------------5---5-----------------5--3--5--3---5----|
G |-----------------------------------------------4------|
D |------------------------------------------------------|
A |------------------------------------------------------|
E |------------------------------------------------------|


               C
Você nâo tem limite
              D
Você nâo tem hora
              Em
Liga pra brinca com os meus sentimentos
              C               D
Faz propostas que sempre me apavora
              Em
Sabe o que é amar e ta perdendo tempo
            C
Você me provoca
                 D
Eu entro no seu jogo
             Em
Sabe dar as cartas

Sabe me ganhar me coloca
C                   D
Sempre em prova de fogo
                  Em
É tudo que eu preciso pra me entregar
             C                  D
Pare de uma vez com essa brincadeira
            Em
Chega de bobeira

Eu to falando sério
               C
Preciso desse amor
                  D
Te amar a noite inteira
             Em
Se você me quer saiba também te quero


E |--7--7--5--3--3----3----3------5--7----|
B |-----------------5----5----5-----------|
G |---------------------------------------|
D |---------------------------------------|
A |---------------------------------------|
E |---------------------------------------|



E |--7--7--5--3----3---3---3-----5---3----------|
B |------------------5---5---5----------5---3---|       (2x)
G |---------------------------------------------|
D |---------------------------------------------|
A |---------------------------------------------|
E |---------------------------------------------|



E |--7--5--3--3----3----5/7--5--3--3---------------------|
B |--------------5---5-----------------5--3--5--3---5----|
G |-----------------------------------------------4------|
D |------------------------------------------------------|
A |------------------------------------------------------|
E |------------------------------------------------------|


    C   D             Em
Oh uoh eu to falando serio..
    C     D            Em
Oh uoh saiba também te quero..
201.268 exibições

Comentários 5

Composição: Luan Santana
Esse não é o compositor? Avise-nos.
Contribuição: Jasane Correções: Isa e mais 2 »
Exibir acordes »
publicidade
fechar