Luan Santana

Incondicional

51.424 exibições
Tom: D
Intro:

    D                           A9
E|---------2-----2-----2---------------0-----0-----0-----|
B|-----3-----3-----------3---------0-----0-----------0---|
G|---2---2-----2----2------2-----2---2-----2----2------2-|
D|-0-----------------------------------------------------|
A|-----------------------------0-------------------------|
E|-------------------------------------------------------|


    Em                          G
E|---------0-----0-----0---------------3-----3-----3-----|
B|-----0-----0-----------0---------3-----3-----------3---|
G|---0---0-----0----0------0-----0---0-----0----0------0-|
D|-------------------------------------------------------|
A|-------------------------------------------------------|
E|-0---------------------------3-------------------------|

(Dedilhado se repete até o refrão)

    D
Eu vou pedir o Sol
Pra iluminar nosso caminho
   A9
E todas as estrelas
Pra enfeitar nosso destino
  Em
E me leve onde for,

Segure a minha mão
      G
Pois sei que você vai

Ser a minha direção
    D
A gente é assim

Temos tanta coisa em comum
   A9
Você tem marca em mim

E pra você não sou mais um
   Em
Assim é o nosso amor
                     G
Tão forte como a noite

Perfeito como o dia

(Batido ↓↓↑↑↓ ↓↑↓↑ até o final da música)

Refrão:
    D
Eu vou subir as nuvens

Pra desenhar o teu sorriso
   A9
E no azul do céu vou ver

Seus olhos brilhando
    Em
Em meio as estrelas
          G
Fico flutuando

    D
Em minhas digitais

Já tem um pouco de você
    A9
Eu sigo seus sinais

Assim nunca vou te perder
  Em
É incondicional

Você tem a forma exata
     G
Pra me prender…
    D
Em você…

( D  A9  Em  G )


E|----------------------------------------------------------------------------|
B|--------8p7--------------------10---12-12p10--12b15r12--10-----10/5--3¬------|
G|------------9-7-9b11----9\11--------------------------------11¬--------------|
D|----7\9---------------------------------------------------------------------|
A|----------------------------------------------------------------------------|
E|----------------------------------------------------------------------------|


E|----7--10-10p7--12b14r12p10--------------10--------|
B|-10-----------------------------12-10-12----12-----|
G|---------------------------------------------------|
D|---------------------------------------------------|
A|---------------------------------------------------|
E|---------------------------------------------------|


E|-15-14-15-14----------------------------------------------------------|
B|--------------15----15-17-15/17-15-----15---------------------------¬--|
G|-----------------16---------------14h16----14\12-------------¬--14-14--|
D|--------------------------------------------------14-12-1¬4\16---------|
A|----------------------------------------------------------------------|
E|----------------------------------------------------------------------|


    D
A gente é assim

Temos tanta coisa em comum
   A9
Você tem marca em mim

E pra você não sou mais um
   Em
Assim é o nosso amor
                     G
Tão forte como a noite

Perfeito como o dia

(Refrão 2x)
    Composição: Luan Santana E Thiago ServoColaboração e revisão:
    • maycon_fabio
    • v.junnior

    Comentários 4

    0:00 / 0:00

    Capítulos

      Esta versão de cifra não é usada na videoaula. Exiba a cifra correta.
      play/pausefechar subir/descer velocidade
      6ª corda E5ª corda A4ª corda D3ª corda G2ª corda B1ª corda E
        acordes
        publicidad
        fechar
        ok