This Day We Fight!

Megadeth

 Megadeth Compositor: Dave Mustaine
Tom: D
		
(riff 1)

E |---------------------------------|
B |---------------------------------|
G |---------------------------------|
D |---------------------------------|
A |-------------------------2h3p2p0-|
E |-2-2-0-3-3-0-2-2-0-3-3-0---------|

   * * * * * * * * * * * *

E |--------------------------|
B |--------------------------|
G |--------------------------|
D |------------------------2-|
A |---------------------4--0-|
E |-2-2-0-3-3-0-2-2-0-0-2----|

   * * * * * * * * * *

E |---------------------------------|
B |---------------------------------|
G |---------------------------------|
D |---------------------------------|
A |-------------------------2h3p2p0-|
E |-2-2-0-3-3-0-2-2-0-3-3-0---------|

   * * * * * * * * * * * *

E |---------------------------------|
B |---------------------------------|
G |---------------------------------|
D |---------------------------------|
A |---------------------------------|
E |-7h8p7p0-5h7p5p0-3h5p3p0-2h3p2p0-|


(riff 2)

E |---------------------------------|
B |---------------------------------|
G |---------------------------------|
D |---------------------------------|
A |-------------------------2h3p2p0-|
E |-2-2-0-3-3-0-2-2-0-3-3-0---------|

   * * * * * * * * * * * *

E |---------------------------------|
B |---------------------------------|
G |---------------------------------|
D |---------------------------------|
A |-------------------------2h3p2p0-|
E |-2-2-0-3-3-0-2-2-0-3-3-0---------|

   * * * * * * * * * * * *

E |---------------------------------|
B |---------------------------------|
G |---------------------------------|
D |---------------------------------|
A |-------------------------2h3p2p0-|
E |-2-2-0-3-3-0-2-2-0-3-3-0---------|

   * * * * * * * * * * * *

E |---------------------------|
B |---------------------------|
G |---------------------------|
D |---------------------------|
A |-------------------2----5--|
E |-2-2-0-3-3-0-2-2-0-0--0-3--|

   * * * * * * * * *    *

(riff 3)

E |----------------------------------|
B |----------------------------------|
G |----------------------------------|
D |----------------------------------|
A |-33333333333333333333333333333333-|
E |----------------------------------|


(guitar fill)

E |----------------------------------|
B |----------------------------------|
G |-5-----------------------10----12-|
D |----------------------------------|
A |-3------------------------8----10-|
E |----------------------------------|


(1st ending)

E |---------------------------------|
B |---------------------------------|
G |---------------------------------|
D |---------------------------------|
A |-------------------------2h3p2p0-|
E |-2-2-0-3-3-0-2-2-0-3-3-0---------|

   * * * * * * * * * * * *

E |---------------------------|
B |---------------------------|
G |---------------------------|
D |---------------------------|
A |-------------------2----5--|
E |-2-2-0-3-3-0-2-2-0-0--0-3--|

   * * * * * * * * *    *

(2nd ending)

E |---------------------------------|
B |---------------------------------|
G |---------------------------------|
D |---------------------------------|
A |-------------------------2h3p2p0-|
E |-2-2-0-3-3-0-2-2-0-3-3-0---------|

   * * * * * * * * * * * *

E |-------------------------|
B |-------------------------|
G |-------------------------|
D |-----------------5--4----|
A |-----------------3--2--5-|
E |-2-2-0-3-3-0-2-0-------3-|

   * * * * * * * *

(riff 4 - solo rhythm)

E |------------------------------|
B |------------------------------|
G |------------------------------|
D |-7p5---7p5---7p5-8888-------5-|
A |-----0-----0----------5h6h7---|
E |------------------------------|

       *     *

E |------------------------------|
B |------------------------------|
G |----------------------------5-|
D |-7p5---7p5---7p5-8888---------|
A |-----0-----0----------5h6h7---|
E |------------------------------|

       *     *

E |------------------------------|
B |------------------------------|
G |------------------------------|
D |-7p5---7p5---7p5-8888-------5-|
A |-----0-----0----------5h6h7---|
E |------------------------------|

       *     *

E |------------------------------|
B |------------------------------|
G |------------------------------|
D |-7p5---7p5---7p5-8888---------|
A |-----0-----0----------7p6p5---|
E |----------------------------8-|

       *     *

(solo - broderick)

E |----------------------------------------------|
B |-15-----16---------------15-----16-----19b21~-|
G |-17b19--18b20-----15-17--17b19--18b20---------|
D |---------------19-----------------------------|
A |----------------------------------------------|
E |----------------------------------------------|



E |-------------------------|
B |-15-----16---------------|
G |-17b19--18b20-----15-17--|
D |---------------19--------|
A |-------------------------|
E |-------------------------|



E |-15h17h20p17p15----15h17h20p17p15-------------------|
B |----------------17----------------19p17p15----15h17-|
G |-------------------------------------------17-------|
D |----------------------------------------------------|
A |----------------------------------------------------|
E |----------------------------------------------------|



E |-15h17h20p17p15---------------17-18-20-18-17----------|
B |----------------20b22r20b22~-----------------20-18-17-|
G |------------------------------------------------------|
D |------------------------------------------------------|
A |------------------------------------------------------|
E |------------------------------------------------------|



E |---------------20b23~-|
B |-20b22r20b22~---------|
G |----------------------|
D |----------------------|
A |----------------------|
E |----------------------|



E |-17-12-15----------------|
B |----------13-17----------|
G |----------------14-17----|
D |----------------------17-|
A |-------------------------|
E |-------------------------|



E |-20-15-17-----------------------------|
B |----------15-20-----------------------|
G |----------------17-19----17--(17)b20~-|
D |----------------------19--------------|
A |--------------------------------------|
E |--------------------------------------|


(end solo)

(riff 5)

E |------------------------------|
B |------------------------------|
G |-7p5---7p5---7p5-8888-------5-|
D |-----0-----0----------5h6h7---|
A |------------------------------|
E |------------------------------|

       *     *

E |------------------------------|
B |----------------------------6-|
G |-7p5---7p5---7p5-8888---------|
D |-----0-----0----------5h6h7---|
A |------------------------------|
E |------------------------------|

       *     *

E |------------------------------|
B |------------------------------|
G |-7p5---7p5---7p5-8888-------5-|
D |-----0-----0----------5h6h7---|
A |------------------------------|
E |------------------------------|

       *     *

E |------------------------------|
B |------------------------------|
G |-7p5---7p5---7p5-8888---------|
D |-----0-----0----------7p6p5---|
A |----------------------------7-|
E |------------------------------|

       *     *

(play riff 4 - solo rhythm)

(solo mustaine)

E |-22b24r22--20h22p20p17-20p17-------------------------------------|
B |-----------------------------22p20p17-20h22p20p17-20p17----------|
G |--------------------------------------------------------21p20p17-|
D |-----------------------------------------------------------------|
A |-----------------------------------------------------------------|
E |-----------------------------------------------------------------|



E |----------------------------------------------------------|
B |-------------17-19p17-19p17-------------------------------|
G |-20p19p17-19----------------20p19p17-19h20p19p17-19p17----|
D |-------------------------------------------------------19-|
A |----------------------------------------------------------|
E |----------------------------------------------------------|



E |---------------------------------------------------------------------|
B |---------------------------------------------------------------------|
G |----------17-19-17---------------------------------------------------|
D |-19p18p17----------19p18p17-18p17-18p17------------------------------|
A |----------------------------------------19p18p17-17h18h19-19~--(19)\-|
E |---------------------------------------------------------------------|


(end solo)

(riff 6)                                          (3x)

E |------------------------------------------------|
B |------------------------------------------------|
G |------------------------------------------------|
D |------------------------------------------------|
A |------2--------2----5----7----8----7----5-------|
E |-0000-0-000000-0-00-3--0-5--0-6----5--0-3-(3)p0-|

   ****   ******   **    *    *         *

E |-----------------------------------|
B |-----------------------------------|
G |-----------------------------------|
D |--------------------------------8--|
A |-5----7----8----(8)\--5----7----6--|
E |-3--0-5--0-6----(6)\--3--0-5--0-6--|

      *    *               *    *

(play - riff 2)
(play - riff 3)
(play  - riff 4 - solo rhythm)

(solo broderick)

E |-----------------------------|
B |----------------------20b22~-|
G |-19b21--(21)r19p17-----------|
D |-------------------19--------|
A |-----------------------------|
E |-----------------------------|



E |-----------------------20b22~-|
B |-20b22---(22)r20p17-----------|
G |--------------------19--------|
D |------------------------------|
A |------------------------------|
E |------------------------------|



E |-22-20-17----------------17----------------------|
B |----------20-17----17-20----20-17----------17-20-|
G |----------------19----------------19-17-19-------|
D |-------------------------------------------------|
A |-------------------------------------------------|
E |-------------------------------------------------|



E |-----------------------------|
B |-----------17----------------|
G |-17~----------19b21--(21)r19-|
D |--------19-------------------|
A |-----------------------------|
E |-----------------------------|



E |-20p17----20p17----20p17-18p17----18p17----18p17-|
B |-------17-------17-------------17-------17-------|
G |-------------------------------------------------|
D |-------------------------------------------------|
A |-------------------------------------------------|
E |-------------------------------------------------|



E |-20p17----20p17----20p17-22p17----22p17----22p17-------|
B |-------17-------17-------------17-------17-------18h20-|
G |-------------------------------------------------------|
D |-------------------------------------------------------|
A |-------------------------------------------------------|
E |-------------------------------------------------------|



E |-17-------------------------------17-----------------------------|
B |----20p18p17----------------18h20----20p18p17--------------------|
G |-------------19----------19-------------------19p17--------------|
D |----------------------19----------------------------20p19p17-19~-|
A |----------------17h20--------------------------------------------|
E |-----------------------------------------------------------------|


(end solo)

(play riff 5)
(play riff 4 - solo rhythm)

(solo mustaine)

E |-5h8p5---6h9p6---7h10p7---8h11p8----9h12p9----|
B |-------7-------8--------9--------10--------11-|
G |----------------------------------------------|
D |----------------------------------------------|
A |----------------------------------------------|
E |----------------------------------------------|



E |-8h11p8----9h12p9----10h13p10----11h14p11----12h15p12----|
B |--------10--------11----------12----------13----------14-|
G |---------------------------------------------------------|
D |---------------------------------------------------------|
A |---------------------------------------------------------|
E |---------------------------------------------------------|



E |-11h14p11----12h15p12----13h16p13----14h17p14----15h18p15----|
B |----------13----------14----------15----------16----------17-|
G |-------------------------------------------------------------|
D |-------------------------------------------------------------|
A |-------------------------------------------------------------|
E |-------------------------------------------------------------|



E |-14h17p14----15h18p15----16h19p16----17h20p17----18h21p18----|
B |----------16----------17----------18----------19----------20-|
G |-------------------------------------------------------------|
D |-------------------------------------------------------------|
A |-------------------------------------------------------------|
E |-------------------------------------------------------------|



E |-22b24~----(24)r22\-|
B |--------------------|
G |--------------------|
D |--------------------|
A |--------------------|
E |--------------------|


(end solo)
(play - riff 6)

(riff 7)

E |---------------------------------|
B |---------------------------------|
G |---------------------------------|
D |---------------------------------|
A |-------------------------2h3p2p0-|
E |-2-2-0-3-3-0-2-2-0-3-3-0---------|

   * * * * * * * * * * * *

E |--------------------------|
B |--------------------------|
G |--------------------------|
D |------------------------2-|
A |-----------------/5--4--0-|
E |-2-2-0-3-3-0-2-0-/3--2----|

   * * * * * * * *

E |---------------------------------|
B |---------------------------------|
G |---------------------------------|
D |---------------------------------|
A |-------------------------2h3p2p0-|
E |-2-2-0-3-3-0-2-2-0-3-3-0---------|

   * * * * * * * * * * * *

E |---------------------------------|
B |---------------------------------|
G |---------------------------------|
D |---------------------------------|
A |---------------------------------|
E |-7h8p7p0-5h7p5p0-3h5p3p0-2h3p2p0-|



E |---------------------------------|
B |---------------------------------|
G |---------------------------------|
D |---------------------------------|
A |-------------------------2h3p2p0-|
E |-2-2-0-3-3-0-2-2-0-3-3-0---------|

   * * * * * * * * * * * *

E |--------------------------|
B |--------------------------|
G |--------------------------|
D |------------------------2-|
A |-----------------/5--4--0-|
E |-2-2-0-3-3-0-2-0-/3--2----|

   * * * * * * * *

E |---------------------------------|
B |---------------------------------|
G |---------------------------------|
D |---------------------------------|
A |-------------------------2h3p2p0-|
E |-2-2-0-3-3-0-2-2-0-3-3-0---------|

   * * * * * * * * * * * *

E |-------------------------------------|
B |-------------------------------------|
G |-------------------------------------|
D |-------------------------------------|
A |-10h12p10p0-9h10p9p0-7h9p7p0-5h7p5p0-|
E |-------------------------------------|


(guitar fill)                  x2

E |----------------------------|
B |----------------------------|
G |----------------------------|
D |----------------------------|
A |-4----4----4--------4----4--|
E |-2----2----2--------2----2--|


(play - riff 1)
(play - riff 1 - solo rhythm)

(after last play of (riff 1 the ending is)

E |---------------------------------------------|
B |---------------------------------------------|
G |---------------------------------------------|
D |---------------------------------------------|
A |-10h12p10p0-9h10p9p0-7h9p7p0-5h7p5p0-4--(4)\-|
E |-------------------------------------2--(2)\-|


(ending solos)

(solo mustaine)

E |----------------------------------|
B |----------------------------------|
G |----------------------------------|
D |-16161616161616161616161616161616-|
A |----------------------------------|
E |----------------------------------|



E |----------------------------------|
B |-14b15-------14b15-------14b15----|
G |-14b15-------14b15-------14b15----|
D |-------1616--------1616--------16-|
A |----------------------------------|
E |----------------------------------|



E |----------------------------------|
B |----------------------------------|
G |----------------------------------|
D |-14161616161616161616161616161616-|
A |----------------------------------|
E |----------------------------------|



E |------------------------------------|
B |-14-----16-----14-----16-----14-----|
G |-14-----16-----14-----16-----14-----|
D |-----16-----16-----16-----16-----16-|
A |------------------------------------|
E |------------------------------------|



E |-------14-------------14-------------14-------|
B |----------17p14-17b19----17p14----------17p14-|
G |-16b18-------------------------16b18----------|
D |----------------------------------------------|
A |----------------------------------------------|
E |----------------------------------------------|



E |-------14-------------------------|
B |-17b19----17p14-------14-17p14----|
G |----------------16b18----------16-|
D |----------------------------------|
A |----------------------------------|
E |----------------------------------|



E |-------------------------------------------------|
B |-------------------------------------------------|
G |-17p16p14-16-16p15p14----14----------------------|
D |----------------------16----16p15p14-16p15p14-16-|
A |-------------------------------------------------|
E |-------------------------------------------------|



E |-----------------------------------------------------|
B |-----------------------------------------------------|
G |-----------------------------------------------------|
D |-16p15p14----15p14-------14----------------------16~-|
A |----------16-------16p15----16p15p14-16p15p14--------|
E |----------------------------------------------17-----|


(end solo)

(solo broderick)

E |-------------------------------------------14h15p14----14~-|
B |------------------------17--15--17-17b19~-----------17-----|
G |-18b19--18~----(18)\14-------------------------------------|
D |-----------------------------------------------------------|
A |-----------------------------------------------------------|
E |-----------------------------------------------------------|



E |------------------------------------------------------|
B |-------------------17-19-20-19b20--(20)r19-17~--(17)\-|
G |----------16-18-19------------------------------------|
D |-16-17-19---------------------------------------------|
A |------------------------------------------------------|
E |------------------------------------------------------|



E |-/17--15p14-------------------------14h15h17p15p14--------|
B |------------17p15p14----------14h15----------------17b19~-|
G |---------------------16p14h16-----------------------------|
D |----------------------------------------------------------|
A |----------------------------------------------------------|
E |----------------------------------------------------------|


(end solo)

(solo mustaine)

E |-14-19p17p14----------------------------------------|
B |-------------19-19p17p14-19-19p17p14-------------19-|
G |-------------------------------------17-17p16p14----|
D |----------------------------------------------------|
A |----------------------------------------------------|
E |----------------------------------------------------|



E |-------------------------------------------------|
B |-19p17p14----------------------------------------|
G |----------17-17p16p14-17-17p16p14-------------17-|
D |----------------------------------16-16p15p14----|
A |-------------------------------------------------|
E |-------------------------------------------------|



E |-------------------------------------------------|
B |-------------------------------------------------|
G |-17p16p14----------------------------------------|
D |----------16-16p15p14-16-16p15p14-------------16-|
A |----------------------------------16-16p15p14----|
E |-------------------------------------------------|



E |-------------------------------------------------|
B |-------------------------------------------------|
G |-------------------------------------------------|
D |-16p15p14----------------------------------------|
A |----------16-16p15p14-16-16p15p14----------------|
E |----------------------------------17-17p16p14\12-|



E |-19p17p14----------------------------------------|
B |----------19-19p17p14-19-19p17p14-------------19-|
G |----------------------------------17-17p16p14----|
D |-------------------------------------------------|
A |-------------------------------------------------|
E |-------------------------------------------------|



E |-------------------------------------------------|
B |-19p17p14----------------------------------------|
G |----------17-17p16p14-17-17p16p14-------------17-|
D |----------------------------------16-16p15p14----|
A |-------------------------------------------------|
E |-------------------------------------------------|



E |-------------------------------------------------|
B |-------------------------------------------------|
G |-17p16p14----------------------------------------|
D |----------16-16p15p14-16-16p15p14-------------16-|
A |----------------------------------16-16p15p14----|
E |-------------------------------------------------|



E |-------------------------|
B |---------------------17--|
G |-------------16----------|
D |-----16----------14------|
A |---------14--------------|
E |-14----------------------|



E |-----17-------19-------21-------------|
B |---------------------------19~--(19)\-|
G |-14------/16------/18-----------------|
D |--------------------------------------|
A |--------------------------------------|
E |--------------------------------------|


(end solo)
Texto Colunas
Alterar tom ½ tom ½ tom
afinação acordes na letra esconder tabs mais »
1.616 exibições

Comentários 0

Composição: Dave Mustaine / Dennis Coles
Esse não é o compositor? Avise-nos.
Contribuição: Mega_Fan_08
Consegui tocarAinda não conseguiram tocar essa música. Seja o primeiro!
    Não consegui tocar
    1. Até Você Voltar - Henrique e Juliano Manteve-se 87.717 exibições
    2. Domingo de Manhã - Marcos e Belutti Manteve-se 75.925 exibições
    3. Cuida Bem Dela - Henrique e Juliano Manteve-se 51.165 exibições
    4. Diz Pra Mim - Banda Malta Manteve-se 43.013 exibições
    5. Raridade - Anderson Freire Manteve-se 41.457 exibições
    6. Recaídas - Henrique e Juliano Manteve-se 41.071 exibições
    7. Só Os Loucos Sabem - Charlie Brown Jr. Manteve-se 30.175 exibições
    8. Pra Você - Onze:20 Manteve-se 29.947 exibições
    9. Let Her Go - Passenger Manteve-se 28.837 exibições
    10. Tudo Que Você Quiser - Luan Santana Manteve-se 28.092 exibições
    1. Henrique e Juliano- Manteve-se 270.802 exibições
    2. Jorge e Mateus- Manteve-se 216.651 exibições
    3. Legião Urbana- Manteve-se 198.586 exibições
    4. Charlie Brown Jr.- Manteve-se 144.506 exibições
    5. Fernandinho- Manteve-se 117.071 exibições
    6. Luan Santana- Manteve-se 115.655 exibições
    7. Bruno e Marrone- Manteve-se 112.849 exibições
    8. Marcos e Belutti- Manteve-se 93.756 exibições
    9. Thalles Roberto- Manteve-se 91.517 exibições
    10. Victor e Leo- Manteve-se 88.181 exibições
    Exibir acordes »

    Cifras e tabs

    Fórum Cifra Club

    Aprenda

    Cifra Club News

    Mais Serviços Cifra Club ID

    Studio Sol

    ©1996 - 2014 Cifra Club · o primeiro, maior e mais acessado do Brasil · 341 mil músicas · 6.3 milhões pessoas cadastradas

    publicidade
    fechar