Porque Eu Sou Crente

Megafone

 Megafone Compositor: Megafone
Tom: C
		
(riff 1)

E|----------------------------------------|
B|----------------------------------------|
G|----------------------------------------|
D|----------------------------------------| (8x)
A|----------7-----------------------------|
E|--0-3-4-5-5-----------------------------|


(ponte 1)

E|----------------------------------------|
B|----------------------------------------|
G|----------------------------------------|
D|-7-7-7-7-7-7-7-7-7-7-7-7-7-7-7-7--------|
A|-5-5-5-5-5-5-5-5-5-5-5-5-5-5-5-5--------|
E|----------------------------------------|


(riff 1)

E|----------------------------------------|
B|----------------------------------------|
G|----------------------------------------|
D|----------------------------------------| (2x)
A|----------7-----------------------------|
E|--0-3-4-5-5-----------------------------|


(ponte 2)

E|----------------------------------------|
B|----------------------------------------|
G|----------------------------------------|
D|-7-7-7-7-7-7-7-7---7/9/7--5-5-----------|
A|-5-5-5-5-5-5-5-5---5/7/5--3-3-----------|
E|----------------------------------------|


(riff 1)

E|----------------------------------------|
B|----------------------------------------|
G|----------------------------------------|
D|----------------------------------------| (2x)
A|----------7-----------------------------|
E|--0-3-4-5-5-----------------------------|


(riff 1 - abafado)
Eu passo por luta e até tribulação
Mas nunca sou vencido eu tenho vida de oração

(refrão)
(riff 2)

E|---------------------------------------------|
B|---------------------------------------------|
G|---------------------------------------------|
D|-7-7-7-7-7-7-7-7-7-7-7-7-7-7-----------------|
A|-5-5-5-5-5-5-5-5-5-5-5-5-5-5--7-7----------7-|
E|------------------------------5-5--0-3-4-5-5-|

Porque eu sou crente
Porque eu sou crente
(riff 3)

E|----------------------------------------|
B|----------------------------------------|
G|----------------------------------------|
D|-7-7-7-7-7-7---7/9/7---5-5--------------|
A|-5-5-5-5-5-5---5/7/5---3-3----------7---|
E|----------------------------0-3-4-5-5---|

Porque eu sou crente
Porque eu sou crente

(riff 1 - abafado)
Não vou colar na prova, eu quero é estudar
Tenho a mente de Cristo, eu sei que vou lembrar

(riff 1 - abafado)
Não importa se me xingam ou inventam apelido
Baixinho, grande ou gordo, eu sei quem sou em Cristo

(riff 1 - abafado)
Pode pedir "tocar Raul" ou seja lá que for
Não vou nem me incomodar, eu faço parte é do louvor

(riff 4)

E|------------------------------------------|
B|------------------------------------------|
G|------------------------------------------|
D|------------------------------------------|
A|---7-7-7-7-5-5-7- 6x   -7---7---7-7-7-7-7-|
E|---5-5-5-5-3-3-5- 6x   -5---5---5-5-5-5-5-|


Me pedem pra ficar, transar ou namorar
Pode ser o mais bonito, mas espero pra casar
Espero pra casar, espero, espero, espero pra casar

(riff 1 - abafado)
Antes eu era tímido, até por telefone
Hoje é tudo diferente, me chamam de MEGAFONE

D|-----------------------|
A|--5--3---------5--3----|
E|--------5------------5-|

 Porque eu sou crente
 Porque eu sou crente


D|--7--5-----|
A|--5--3--7--|
E|--------5--|

Porque eu sou crente
Porque eu sou crente

Comentários 0

Composição: Sabe quem é o compositor? Envie pra gente. Contribuição: #.gUinHo Correções: Fabioxl »
Consegui tocarAinda não conseguiram tocar essa música. Seja o primeiro!
    Não consegui tocar
    Exibir acordes »
    publicidade
    fechar