Isaias 9

Rodolfo Abrantes

 Rodolfo Abrantes Compositor: Rodolfo Abrantes
Tom: D
		
Intro 2x:  D  A  Bm

Verso:
D   A       Bm
Um menino nasceu
        D    A      Bm
Como um filho se nos deu
                D
Ele é o próprio Deus
  A       Bm
E vive em mim
                D
Debaixo de suas asas
   A       Bm
Eu me escondi

G        D/F#   Em
E o seu nome é maravilhoso
G         Bm           A
Glória ao príncipe da paz

Refrão:
  Bm                  F#m
O céu começa a se abrir
       Bm                 G
Toda a terra se dobrou a Ti
 D/F#             F#m
Cristo, rei dos reis
             G
Veio nos buscar

Bm                F#m
Leva-nos em tuas mãos
      Bm              G
Pelas portas da cidade
D/F#          F#m
Na nova jerusalém
                 G
Tua noiva vai entrar

Ponte: Bm  D  F#m  A


E|----------------7------------------------------------------|
B|----------------7--------------------------------------7/2-|
G|----------------7--7/9-------------------------------------|
D|-7/9---------------7/9---7--7h9--9p7---7-------------------|
A|-----7/9--5/7----------9-------------9---9----10--9--7-----|
E|--------------7--------------------------------------------|


(Verso)

Verso:
D   A       Bm
Um menino nasceu
        D    A      Bm
Como um filho se nos deu
                D
Ele é o próprio Deus
  A       Bm
E vive em mim
                D9
Debaixo de suas asas
   A       Bm
Eu me escondi

G        D/F#   Em
E o seu nome é maravilhoso
G         Bm           A
Glória ao príncipe da paz

(Refrão 2x)
  Bm                  F#m
O céu começa a se abrir
       Bm                 G
Toda a terra se dobrou a Ti
 D/F#             F#m
Cristo, rei dos reis
             G
Veio nos buscar

Bm                F#m
Leva-nos em tuas mãos
      Bm              G
Pelas portas da cidade
D/F#          F#m
Na nova jerusalém
                 G
Tua noiva vai entrar


E|---------------------------------------------------------------------------------------------------------|
B|---------------------------------------------------------------------------------------------------------|
G|---------------------------------------------------------------------------------------------------------|
D|-4-4--4-2--4--6--7-7--7-7--7--6---------------------------------4-4--4-2--4--6--7-7--7-7--7--6-----------|
A|-2-2--2-2--2--4--5-5--5-5--5--4--4-4--4-4--4--6--7-7--7-7--7-7--2-2--2-2--2--4--5-5--5-5--5--4--7-7--7-7-|
E|---------------------------------2-2--2-2--2--4--5-5--5-5--5-5----------------------------------5-5--5-5-|


(Refrão 1x)
  Bm                  F#m
O céu começa a se abrir
       Bm                 G
Toda a terra se dobrou a Ti
 D/F#             F#m
Cristo, rei dos reis
             G
Veio nos buscar

Bm                F#m
Leva-nos em tuas mãos
      Bm              G
Pelas portas da cidade
D/F#          F#m
Na nova jerusalém
                 G
Tua noiva vai entrar

Ponte pro final 4x:  Bm  D  F#m  A


     Bm          D             F#m                A
E|------------------------------------------------|
B|------------------------------------------------|
G|------------------------------------------------|
D|-7/9--7---7--7/9--7---7---7/9--7---7------------|
A|--------9-----------9---9--------9---9--7--5--7-|
E|------------------------------------------------|


(D)
Texto Colunas
Alterar tom ½ tom ½ tom
afinação acordes na letra esconder tabs mais »

Comentários (21)

  • Pamela Danielly Pamela Danielly: Postado em 02/01/2014 23:23

    linda musica

  • Gerlan Gerlan: Postado em 22/11/2013 18:47

    Gostei bastante da música . e fácil de tocar ..

  • clebyo clebyo: Postado em 26/08/2013 17:02

    Olá meu nome é Clebyo Adeilson, e eu gostaria de saber quem tanto aqui na cifraclub da aula de vioão, guitarra, ou outros instrumentos

  • Cesar Cesar: Postado em 17/08/2013 12:45

    CESAR KING JONES LA NO YOUTUBE PROCURA

  • Cesar Cesar: Postado em 17/08/2013 12:45

    FIZ COVER DESSA MUSICA

  • ester.rodriguesa ester.rodriguesa: Postado em 01/08/2013 17:31

    nossa a melodia bate mto bem com os acordes ,,,
    e no refrao da ate pra acrecentar um arpejo ;]

  • Júlia Júlia : Postado em 29/03/2013 02:06

    o Rodolfo congrega na minha igreja ele toca sempre é maior chapação...

  • gustavobalbo gustavobalbo: Postado em 09/12/2012 12:32

    Gilbertinho a música não é dele, ele só regravou ela. Quem a compôs foi o Lucas Souza :3

    • erasmo122 erasmo122: Postado em 28/06/2013 16:31

      na verdade é o contrario, a música é dele e o Lucas Souza regravou

  • Gilbertinho Gilbertinho: Postado em 04/09/2012 23:31

    nao duvidando da capacidade dele só achei q essa musica nao tinha muito a cara dele

Exibindo 10 de 21 comentários Mostrar mais ver todos »
Composição: Rodolfo Abrantes
Esse não é o compositor? Avise-nos.
Contribuição: brazhc Correções: angelo , Kelvyn e mais 13 »
  1. Tudo Que Você Quiser - Luan Santana Manteve-se 5.990 exibições
  2. Lepo Lepo - Psirico Manteve-se 4.438 exibições
  3. Mozão - Lucas Lucco Manteve-se 4.146 exibições
  4. Logo Eu - Jorge e Mateus Manteve-se 3.992 exibições
  5. Pra Você - Onze:20 Manteve-se 3.594 exibições
  6. Gaveta - Fernando e Sorocaba Manteve-se 3.572 exibições
  7. Só Os Loucos Sabem - Charlie Brown Jr. Manteve-se 3.053 exibições
  8. Fui Fiel - Gusttavo Lima Manteve-se 2.616 exibições
  9. Tempo Perdido - Legião Urbana Manteve-se 2.603 exibições
  10. Na Linha do Tempo - Victor e Leo Manteve-se 2.151 exibições
  1. Jorge e Mateus- Manteve-se 23.713 exibições
  2. Legião Urbana- Manteve-se 20.945 exibições
  3. Luan Santana- Manteve-se 17.298 exibições
  4. Charlie Brown Jr.- Manteve-se 17.152 exibições
  5. Fernandinho- Manteve-se 14.628 exibições
  6. Thalles Roberto- Manteve-se 11.183 exibições
  7. Católicas- Manteve-se 11.175 exibições
  8. Gusttavo Lima- Manteve-se 10.712 exibições
  9. Victor e Leo- Manteve-se 10.599 exibições
  10. Aline Barros- Manteve-se 10.088 exibições
Exibir acordes »

Cifras e tabs

Fórum Cifra Club

Aprenda

Cifra Club News

Mais Serviços Cifra Club ID

Studio Sol

©1996 - 2014 Cifra Club · o primeiro, maior e mais acessado do Brasil · 329 mil músicas · 5.9 milhões pessoas cadastradas

publicidade
fechar