Isaias 9

Rodolfo Abrantes

 Rodolfo Abrantes Compositor: Rodolfo Abrantes
Tom: D
		
Intro 2x:  D  A  Bm

Verso:
D   A       Bm
Um menino nasceu
        D    A      Bm
Como um filho se nos deu
                D
Ele é o próprio Deus
  A       Bm
E vive em mim
                D
Debaixo de suas asas
   A       Bm
Eu me escondi

G        D/F#   Em
E o seu nome é maravilhoso
G         Bm           A
Glória ao príncipe da paz

Refrão:
  Bm                  F#m
O céu começa a se abrir
       Bm                 G
Toda a terra se dobrou a Ti
 D/F#             F#m
Cristo, rei dos reis
             G
Veio nos buscar

Bm                F#m
Leva-nos em tuas mãos
      Bm              G
Pelas portas da cidade
D/F#          F#m
Na nova jerusalém
                 G
Tua noiva vai entrar

Ponte: Bm  D  F#m  A


E|----------------7---------------------------------------|
B|----------------7-----------------------------------7/3-|
G|----------------7--7/9----------------------------------|
D|-7/9---------------7/9-----7--9p7---7-------------------|
A|-----7/9--5/7----------9--9-------9---9----10--9--7-----|
E|--------------7-----------------------------------------|


(Verso)

Verso:
D   A       Bm
Um menino nasceu
        D    A      Bm
Como um filho se nos deu
                D
Ele é o próprio Deus
  A       Bm
E vive em mim
                D9
Debaixo de suas asas
   A       Bm
Eu me escondi

G        D/F#   Em
E o seu nome é maravilhoso
G         Bm           A
Glória ao príncipe da paz

(Refrão 2x)
  Bm                  F#m
O céu começa a se abrir
       Bm                 G
Toda a terra se dobrou a Ti
 D/F#             F#m
Cristo, rei dos reis
             G
Veio nos buscar

Bm                F#m
Leva-nos em tuas mãos
      Bm              G
Pelas portas da cidade
D/F#          F#m
Na nova jerusalém
                 G
Tua noiva vai entrar


E|---------------------------------------------------------------------------------------------------------|
B|---------------------------------------------------------------------------------------------------------|
G|---------------------------------------------------------------------------------------------------------|
D|-4-4--4-2--4--6--7-7--7-7--7--6---------------------------------4-4--4-2--4--6--7-7--7-7--7--6-----------|
A|-2-2--2-2--2--4--5-5--5-5--5--4--4-4--4-4--4--6--7-7--7-7--7-7--2-2--2-2--2--4--5-5--5-5--5--4--7-7--7-7-|
E|---------------------------------2-2--2-2--2--4--5-5--5-5--5-5----------------------------------5-5--5-5-|


(Refrão 1x)
  Bm                  F#m
O céu começa a se abrir
       Bm                 G
Toda a terra se dobrou a Ti
 D/F#             F#m
Cristo, rei dos reis
             G
Veio nos buscar

Bm                F#m
Leva-nos em tuas mãos
      Bm              G
Pelas portas da cidade
D/F#          F#m
Na nova jerusalém
                 G
Tua noiva vai entrar

Ponte pro final 4x:  Bm  D  F#m  A


      Bm          D             F#m                A
E|------------------------------------------------|
B|------------------------------------------------|
G|------------------------------------------------|
D|-7/9--7---7--7/9--7---7---7/9--7---7------------|
A|--------9-----------9---9--------9---9--7--5--7-|
E|------------------------------------------------|


(D)

Comentários 23

  • nicoly nicoly: Postado em 08/10/2014 10:51

    batida ?

  • Anderson Anderson: Postado em 31/08/2014 12:16

    muuuiito boa de tocar!! perfect!!!

  • Pamela Danielly Pamela Danielly: Postado em 02/01/2014 23:23

    linda musica

  • Gerlan Gerlan: Postado em 22/11/2013 18:47

    Gostei bastante da música . e fácil de tocar ..

  • clebyo clebyo: Postado em 26/08/2013 17:02

    Olá meu nome é Clebyo Adeilson, e eu gostaria de saber quem tanto aqui na cifraclub da aula de vioão, guitarra, ou outros instrumentos

  • Cesar Cesar: Postado em 17/08/2013 12:45

    CESAR KING JONES LA NO YOUTUBE PROCURA

  • Cesar Cesar: Postado em 17/08/2013 12:45

    FIZ COVER DESSA MUSICA

  • ester.rodriguesa ester.rodriguesa: Postado em 01/08/2013 17:31

    nossa a melodia bate mto bem com os acordes ,,,
    e no refrao da ate pra acrecentar um arpejo ;]

  • Júlia Júlia : Postado em 29/03/2013 02:06

    o Rodolfo congrega na minha igreja ele toca sempre é maior chapação...

  • gustavobalbo gustavobalbo: Postado em 09/12/2012 12:32

    Gilbertinho a música não é dele, ele só regravou ela. Quem a compôs foi o Lucas Souza :3

    • erasmo122 erasmo122: Postado em 28/06/2013 16:31

      na verdade é o contrario, a música é dele e o Lucas Souza regravou

Exibindo 11 de 23 comentários Mostrar mais ver todos »
Composição: Rodolfo Abrantes
Esse não é o compositor? Avise-nos.
Contribuição: brazhc Correções: Victor , Kelvyn e mais 14 »
Exibir acordes »
publicidade
fechar