Enviar cifraEntrar

Isaias 9

Rodolfo Abrantes

Cifra: Principal
exibições 540.962
Tom: C
Intro 2x:  C  G  Am

C   G/B     Am
Um menino nasceu
        C    G/B     Am
Como um filho se nos deu
                C
Ele é o próprio Deus
  G/B     Am
E vive em mim
                C
Debaixo de suas asas
   G/B     Am
Eu me escondi

F        Am   Dm7     Am
E o seu nome é maravilhoso
F         Am           G/B
Glória ao príncipe da paz

Refrão:
   Am               Em
O céu começa a se abrir
       Am               F
Toda a terra se dobrou a Ti
  C/E            Em
Cristo, rei dos reis
             F
Veio nos buscar

 Am               Em
Leva-nos em tuas mãos
      Am             F
Pelas portas da cidade
C/E           Em
Na nova Jerusalém
                 F
Tua noiva vai entrar.

Ponte: ( Am  C  Em  G (Am  C  G/B) )


E|---------------------------------------------------------------|
B|---------------------------------------------------------------|
G|-------------------9----------------------------------9/11/7---|
D|---7p9-------------9---7p9-7---7-9-7---7-----------------------|
A|-------7--7p9----------------9-------9---9----10-9-7-----------|
E|--------------7-X----------------------------------------------|



C   G/B      Am
Um menino nasceu
        C    G/B     Am
Como um filho se nos deu
                C
Ele é o próprio Deus
  G/B      Am
E vive em mim
                C
Debaixo de suas asas
   G/B     Am
Eu me escondi,

F        Am    Dm     Am
E o seu nome é maravilhoso
F         Am           G/B
Glória ao príncipe da paz.

Refrão 3x:
   Am               Em
O céu começa a se abrir
       Am               F
Toda a terra se dobrou a Ti
  C/E            Em
Cristo, rei dos reis
             F
Veio nos buscar


Solo Final:


E|--------------------------------------------|
B|--------------------------------------------|
G|--------------------------------------------|
D|-9-7-4-9---9-7-4-9-4---9-7-4-9-4-2~--4-7----|  4x
A|--------------------------------------------|
E|--------------------------------------------|


  Final: A
E|-----------|
B|-----------|
G|-----------|
D|-----7~----|
A|-----7~----|
E|-----5~----|
  • 1
  • 2
  • 3
  • 4
  • 5
  • 6
  • 7
  • 8
  • 9
  • 10
  • 11
  • 12

    0 comentários

      mostrar mais comentários

      Conseguiu tocar?

      73tocaram1ainda não

      Grave um vídeo tocando Isaias 9 e mande pra gente!

      00:00 / 00:00
      outros vídeos desta música
      repetirqualidadeautomática
      • automática
      Outro vídeos desta música
        00:00 / 00:00
        automática
        • automática
        1 versão de Tab de gaitaexibiçõescontribuições
        1 versão de Partiturasformatodownloadscontribuição
        fecharplay/pause subir/descer velocidade
          acordes
          fechar
          OK
          Feedback