My Favourite Accident

Motion City Soundtrack

 Motion City Soundtrack
Tom: F#
		

This is 100%


Played at the end of the piano intro after a few drum beats:


e|----------------------------|
B|-6-46464-6-46467-6-46464-6--|
G|-6-66666-6-66666-6-66666-6--|
D|----------------------------|
A|----------------------------|
E|----------------------------|


Keybourd Intro

Played over Keyboard Intro:


e|----------------------------------|
B|----------------------------------|
G|-3-3-3-3--------------------------|
D|-3-3-3-3-6-6-6-6-4-4-4-4-4-4-4-4--|
A|-1-1-1-1-6-6-6-6-4-4-4-4-4-4-4-4--|
E|---------4-4-4-4-2-2-2-2-2-2-2-2--|



e|-----------------------------------|
B|-----------------------------------|
G|-3-3-3-3---------------------------|
D|-3-3-3-3-6-6-6-6-4-xx4-xx4-xx4-xx--|
A|-1-1-1-1-6-6-6-6-4-xx4-xx4-xx4-xx--|
E|---------4-4-4-4-2-xx2-xx2-xx2-xx--|



e|----------------------------------|
B|----------------------------------|
G|-3-3-3-3--------------------------|
D|-3-3-3-3-6-6-6-6-4-4-4-4-4-4-4-4--|
A|-1-1-1-1-6-6-6-6-4-4-4-4-4-4-4-4--|
E|---------4-4-4-4-2-2-2-2-2-2-2-2--|



e|---------------------|
B|---------------------|
G|-3-3-3-3-------------|
D|-3-3-3-3-6-6-6-6-4~--|
A|-1-1-1-1-6-6-6-6-4~--|
E|---------4-4-4-4-2~--|


Verse:


e|----------------------------------|
B|----------------------------------|
G|-3-3-3-3--------------------------|
D|-3-3-3-3-6-6-6-6-4-4-4-4-4-4-4-4--|
A|-1-1-1-1-6-6-6-6-4-4-4-4-4-4-4-4--|
E|---------4-4-4-4-2-2-2-2-2-2-2-2--|

PM . . . . . . . . . . . . . . . .


e|-----------------------------------|
B|-----------------------------------|
G|-3-3-3-3---------------------------|
D|-3-3-3-3-6-6-6-6-4-xx4-xx4-xx4-xx--|
A|-1-1-1-1-6-6-6-6-4-xx4-xx4-xx4-xx--|
E|---------4-4-4-4-2-xx2-xx2-xx2-xx--|

PM . . . . . . . . .   .   .   .


e|----------------------------------|
B|----------------------------------|
G|-3-3-3-3--------------------------|
D|-3-3-3-3-6-6-6-6-4-4-4-4-4-4-4-4--|
A|-1-1-1-1-6-6-6-6-4-4-4-4-4-4-4-4--|
E|---------4-4-4-4-2-2-2-2-2-2-2-2--|

PM . . . . . . . . . . . . . . . .


e|---------------------|
B|---------------------|
G|-3-3-3-3-------------|
D|-3-3-3-3-6-6-6-6-4~--|
A|-1-1-1-1-6-6-6-6-4~--|
E|---------4-4-4-4-2~--|

PM . . . . . . . . 


Pre-Chorus/End of Verse:



e|----------------------------------|
B|----------------------------------|
G|-3-3-3-3--------------------------|
D|-3-3-3-3-6-6-6-6-4-4-4-4-4-4-4-4--| 2x
A|-1-1-1-1-6-6-6-6-4-4-4-4-4-4-4-4--|
E|---------4-4-4-4-2-2-2-2-2-2-2-2--|



Chorus:


e|----------------------------------|
B|-------------------------5-5------|
G|-----------------6-6-6-6-4-4-4-4--|
D|-4-4-4-4-4-4-4-4-6-6-6-6-2-2-4-4--|
A|-4-4-4-4-4-4-4-4-4-4-4-4-----2-2--|
E|-1-1-1-1-2-2-2-2------------------|



e|------------------------------------|
B|------------------------------------|
G|-----------------6-6-6-6-8-8-10-10--|
D|-4-4-4-4-4-4-4-4-6-6-6-6-8-8-10-10--|
A|-4-4-4-4-4-4-4-4-4-4-4-4-6-6--8--8--|
E|-1-1-1-1-2-2-2-2--------------------|



e|----------------------------------|
B|-------------------------5-5------|
G|-----------------6-6-6-6-4-4-4-4--|
D|-4-4-4-4-4-4-4-4-6-6-6-6-2-2-4-4--|
A|-4-4-4-4-4-4-4-4-4-4-4-4-----2-2--|
E|-1-1-1-1-2-2-2-2------------------|



e|---------------------|
B|---------------------|
G|-----------------6~--|
D|-4-4-4-4-4-4-4-4-6~--|
A|-4-4-4-4-4-4-4-4-4~--|
E|-1-1-1-1-2-2-2-2-----|


Verse:


e|----------------------------------|
B|----------------------------------|
G|-3-3-3-3--------------------------|
D|-3-3-3-3-6-6-6-6-4-4-4-4-4-4-4-4--|
A|-1-1-1-1-6-6-6-6-4-4-4-4-4-4-4-4--|
E|---------4-4-4-4-2-2-2-2-2-2-2-2--|

PM . . . . . . . . . . . . . . . .


e|-----------------------------------|
B|-----------------------------------|
G|-3-3-3-3---------------------------|
D|-3-3-3-3-6-6-6-6-4-xx4-xx4-xx4-xx--|
A|-1-1-1-1-6-6-6-6-4-xx4-xx4-xx4-xx--|
E|---------4-4-4-4-2-xx2-xx2-xx2-xx--|

PM . . . . . . . . .   .   .   .


e|----------------------------------|
B|----------------------------------|
G|-3-3-3-3--------------------------|
D|-3-3-3-3-6-6-6-6-4-4-4-4-4-4-4-4--|
A|-1-1-1-1-6-6-6-6-4-4-4-4-4-4-4-4--|
E|---------4-4-4-4-2-2-2-2-2-2-2-2--|

PM . . . . . . . . . . . . . . . .


e|---------------------|
B|---------------------|
G|-3-3-3-3-------------|
D|-3-3-3-3-6-6-6-6-4~--|
A|-1-1-1-1-6-6-6-6-4~--|
E|---------4-4-4-4-2~--|



Pre-Chorus/End of Verse:



e|----------------------------------|
B|----------------------------------|
G|-3-3-3-3--------------------------|
D|-3-3-3-3-6-6-6-6-4-4-4-4-4-4-4-4--| 2x
A|-1-1-1-1-6-6-6-6-4-4-4-4-4-4-4-4--|
E|---------4-4-4-4-2-2-2-2-2-2-2-2--|



Chorus:


e|----------------------------------|
B|-------------------------5-5------|
G|-----------------6-6-6-6-4-4-4-4--|
D|-4-4-4-4-4-4-4-4-6-6-6-6-2-2-4-4--|
A|-4-4-4-4-4-4-4-4-4-4-4-4-----2-2--|
E|-1-1-1-1-2-2-2-2------------------|



e|------------------------------------|
B|------------------------------------|
G|-----------------6-6-6-6-8-8-10-10--|
D|-4-4-4-4-4-4-4-4-6-6-6-6-8-8-10-10--|
A|-4-4-4-4-4-4-4-4-4-4-4-4-6-6--8--8--|
E|-1-1-1-1-2-2-2-2--------------------|



e|----------------------------------|
B|-------------------------5-5------|
G|-----------------6-6-6-6-4-4-4-4--|
D|-4-4-4-4-4-4-4-4-6-6-6-6-2-2-4-4--|
A|-4-4-4-4-4-4-4-4-4-4-4-4-----2-2--|
E|-1-1-1-1-2-2-2-2------------------|



e|---------------------|
B|---------------------|
G|-----------------6~--|
D|-4-4-4-4-4-4-4-4-6~--|
A|-4-4-4-4-4-4-4-4-4~--|
E|-1-1-1-1-2-2-2-2-----|


Bridge


e|----------------------------------|
B|-------------------------5-5------|
G|-----------------6-6-6-6-4-4-4-4--|
D|-4-4-4-4-4-4-4-4-6-6-6-6-2-2-4-4--|
A|-4-4-4-4-4-4-4-4-4-4-4-4-----2-2--|
E|-1-1-1-1-2-2-2-2------------------|



e|------------------------------------|
B|------------------------------------|
G|-----------------6-6-6-6-8-8-10-10--|
D|-4-4-4-4-4-4-4-4-6-6-6-6-8-8-10-10--|
A|-4-4-4-4-4-4-4-4-4-4-4-4-6-6--8--8--|
E|-1-1-1-1-2-2-2-2--------------------|



e|----------------------------------|
B|-------------------------5-5------|
G|-----------------6-6-6-6-4-4-4-4--|
D|-4-4-4-4-4-4-4-4-6-6-6-6-2-2-4-4--|
A|-4-4-4-4-4-4-4-4-4-4-4-4-----2-2--|
E|-1-1-1-1-2-2-2-2------------------|



e|---------------------|
B|---------------------|
G|-----------------6~--|
D|-4-4-4-4-4-4-4-4-6~--|
A|-4-4-4-4-4-4-4-4-4~--|
E|-1-1-1-1-2-2-2-2-----|


Verse:


e|----------------------------------|
B|----------------------------------|
G|-2-2-2-2--------------------------|
D|-2-2-2-2-6-6-6-6-4-4-4-4-4-4-4-4--|
A|-0-0-0-0-6-6-6-6-4-4-4-4-4-4-4-4--|
E|---------4-4-4-4-2-2-2-2-2-2-2-2--|

PM . . . . . . . . . . . . . . . .


e|-----------------------------------|
B|-----------------------------------|
G|-2-2-2-2---------------------------|
D|-2-2-2-2-6-6-6-6-4-xx4-xx4-xx4-xx--|
A|-0-0-0-0-6-6-6-6-4-xx4-xx4-xx4-xx--|
E|---------4-4-4-4-2-xx2-xx2-xx2-xx--|

PM . . . . . . . . .   .   .   .


e|----------------------------------|
B|----------------------------------|
G|-2-2-2-2--------------------------|
D|-2-2-2-2-6-6-6-6-4-4-4-4-4-4-4-4--|
A|-0-0-0-0-6-6-6-6-4-4-4-4-4-4-4-4--|
E|---------4-4-4-4-2-2-2-2-2-2-2-2--|

PM . . . . . . . . . . . . . . . .


e|--------------------|
B|--------------------|
G|-2-2-2-2------------|
D|-2-2-2-2-6-6-6-6-4--|
A|-0-0-0-0-6-6-6-6-4--|
E|---------4-4-4-4-2--|

PM . . . . . . . . 


Pre-Chorus/End of Verse:



e|----------------------------------|
B|----------------------------------|
G|-3-3-3-3--------------------------|
D|-3-3-3-3-6-6-6-6-4-4-4-4-4-4-4-4--| 2x
A|-1-1-1-1-6-6-6-6-4-4-4-4-4-4-4-4--|
E|---------4-4-4-4-2-2-2-2-2-2-2-2--|


Outro


e|--------------------------------------|
B|-6-46464-6-46467-6-46464-6-6-46467-6--|
G|-6-66666-6-66666-6-66666-6-6-46467-6--|
D|--------------------------------------| 4x
A|--------------------------------------|
E|--------------------------------------|
356 exibições

Comentários 0

Composição: Gigi D'Alessio / Ida Emerson / Mohr
Esse não é o compositor? Avise-nos.
Consegui tocarAinda não conseguiram tocar essa música. Seja o primeiro!
    Não consegui tocar
    Exibir acordes »
    publicidade
    fechar