Luz Antiga

Nando Reis

 Nando Reis Compositor: Nando Reis
Tom: D
		

E|------------------------------------------|
B|------------------------------------------|
G|----------2-------------------------------|
D|------2-0---------------------------------|
A|0h2-0-------------------------------------|
E|------------------------------------------|


			 Bm
Eu só queria que você cuidasse
D			             A
Um pouco mais de mim como eu cuido de você
                        Bm
Cuidar é simplesmente olhar
D                       A
Pro mundo que você não vê
                                 Bm
Pra medir o amor não existe cálculo
D                       A
Um mais um pode não ser dois
                  Bm
Sentir a sua liberdade
D                                 A
Desejo que não é sonho é mera ilusão

(refrão)
     Bm
Se não sabe
    D
Se afaste
    A
De mim
        Bm
Se ainda cabe
    D
Me abrace
   A
Enfim


E|------------------------------------------|
B|------------------------------------------|
G|----------2-------------------------------|
D|------2-0---------------------------------|
A|0h2-0-------------------------------------|
E|------------------------------------------|


                     Bm
Só ligue se tiver vontade
D                     A
Só venha se quiser me ver
                 Bm
Mentira é pura vaidade
D                      A
De quem precisa se esconder

(refrão)

G                                     A
Será que eu vejo apenas o que você não vê?
G		         	       A
Eu não entendo como você não pode perceber
Bm
Que eu não sei mais
D
Eu não sei mais
G
Eu não sei mais
Bm
Eu não sei mais
A
Eu não sei o que fazer


E|------------------------------------------|
B|------------------------------------------|
G|----------2-------------------------------|
D|------2-0---------------------------------|
A|0h2-0-------------------------------------|
E|------------------------------------------|


		            Bm
O sangue é o rio que irriga a carne
D                          A
A alma é margem e o contorno
                      Bm
É luz antiga ao fim da tarde
D                    A
De uma saudade sem socorro

       Bm
Se não sabe
  D
Se afaste
  A
De mim
                   Bm
Mas antes que seja tarde
     D
Nos salve
   A
Do fim

Bm    D     A
Uh uh uh uh...


E|------------------------------------------|
B|------------------------------------------|
G|----------2-------------------------------|
D|------2-0---------------------------------|
A|0h2-0-------------------------------------|
E|------------------------------------------|
14.388 exibições

Comentários 3

  • marcelopitiba.barbosa marcelopitiba.barbosa: Postado em 10/10/2014 21:53

    Não da para imprimir sem as Tabs, não a opção Esconder Tabs, na hora da impressão

  • jadegm jadegm: Postado em 17/05/2013 21:07

    como é o ritmo ?

    • João João: Postado em 21/01/2014 17:51

      é assim:
      BBCCBBC
      (B=Baixo e C=Cima)

Composição: Nando Reis
Esse não é o compositor? Avise-nos.
Contribuição: 1nf3rn4l Correções: Jorge , interfectoris e mais 2 »
Exibir acordes »
publicidade
fechar