Cifra Club

Luz Antiga

Nando Reis

Cifra: Principal
exibições 24.526
Tom: D
E|------------------------------------------|
B|------------------------------------------|
G|2h4-2-------------------------------------|
D|------4-2-0-------------------------------|
A|------------------------------------------|
E|------------------------------------------|

                         Bm
Eu só queria que você cuidasse
D                                    A
Um pouco mais de mim como eu cuido de você
                        Bm
Cuidar é simplesmente olhar
D                       A
Pro mundo que você não vê
                                 Bm
Pra medir o amor não existe cálculo
D                       A
Um mais um pode não ser dois
                  Bm
Sentir a sua liberdade
D                                 A
Desejo que não é sonho é mera ilusão

(refrão)
     Bm
Se não sabe
    D
Se afaste
    A
De mim
        Bm
Se ainda cabe
    D
Me abrace
   A
Enfim

E|------------------------------------------|
B|------------------------------------------|
G|2h4-2-------------------------------------|
D|------4-2-0-------------------------------|
A|------------------------------------------|
E|------------------------------------------|

                     Bm
Só ligue se tiver vontade
D                     A
Só venha se quiser me ver
                 Bm
Mentira é pura vaidade
D                      A
De quem precisa se esconder

(refrão)

G                                     A
Será que eu vejo apenas o que você não vê?
G                                      A
Eu não entendo como você não pode perceber
Bm
Que eu não sei mais
D
Eu não sei mais
G
Eu não sei mais
Bm
Eu não sei mais
A
Eu não sei o que fazer

E|------------------------------------------|
B|------------------------------------------|
G|2h4-2-------------------------------------|
D|------4-2-0-------------------------------|
A|------------------------------------------|
E|------------------------------------------|

                            Bm
O sangue é o rio que irriga a carne
D                          A
A alma é margem e o contorno
                      Bm
É luz antiga ao fim da tarde
D                    A
De uma saudade sem socorro

       Bm
Se não sabe
  D
Se afaste
  A
De mim
                   Bm
Mas antes que seja tarde
     D
Nos salve
   A
Do fim

Bm    D     A
Uh uh uh uh...

E|------------------------------------------|
B|------------------------------------------|
G|2h4-2-------------------------------------|
D|------4-2-0-------------------------------|
A|------------------------------------------|
E|------------------------------------------|
Acordes para:
    Composição: Nando ReisColaboração e revisão:

    0 comentários

      mostrar mais comentários

      Conseguiu tocar?

      11tocaram0ainda não

      Grave um vídeo tocando Luz Antiga e mande pra gente!

      00:00 / 00:00
      outros vídeos desta música
      repetirqualidadeautomática
      Outro vídeos desta música
        00:00 / 00:00
        automática
        OK