Where Are You Now

Nazareth

 Nazareth
Tom: D
		
Introdução no violão: F#m D E (2x)

(Primeiro Verso)

                A
Every single day
G
I think of the times
D
When you were still mine
A
And I'm blue
               A
Got to get away
G
Get you out of my mind
D
I'm caught up in time
             A
And I'm blue

(Pré Refrão)

 F#m                   B
I don't miss all the fun that we had
 F#m               E
You were always around me

(Refrão)

 F#m  D        E
Where are you now
F#m    D    E
I need you now
F#m     D       E
If you were around
F#m        E     F#m
It would be alright

(Segundo Verso)

               A
Living on my own
G
I know I'm to blame
D
I'm locked in my chains
A
And you're free
                  A
Fallen like a stone
G
I'm down on the ground
D
I'm tied up and bound
              A
And you're free

(Pré Refrão)

F#m                   B
I don't miss all the fun that we had
F#m               E
You were always around me

(Refrão)

 F#m  D        E
Where are you now
F#m    D    E
I need you now
F#m     D       E
If you were around
F#m        E     F#m
It would be alright

(Base do Solo no Violão: A G D A A G D A A)

(Solo na Guitarra)


E|---------------|----------------------------------|
B|-----2—3-3/5~~-|—2b3r2-------2b3r2----------------|
G|-2-4-----------|-------4-2~-------4-2~------4/6~~-|
D|---------------|-----------------------4-2--------|
A|---------------|----------------------------------|
E|---------------|----------------------------------|



E|-----------------------------------------------------------------|
B|--------14-15b17--14-15-14---------14-15-14----------------------|
G|-14-16----------------------16-14-----------16-14---------16b18--|
D|----------------------------------------------------16-14--------|
A|-----------------------------------------------------------------|
E|-----------------------------------------------------------------|



E|-14-------14-------14--------|
B|----17b19----17b19----17b19--|
G|-----------------------------|
D|-----------------------------|
A|-----------------------------|
E|-----------------------------|


(Pré Refrão)

F#m                   B
I don't miss all the fun that we had
F#m               E
You were always around me

(Refrão 2x)

F#m  D        E
Where are you now
F#m    D    E
I need you now
F#m     D       E
If you were around
F#m        E         F#m
It would be al____right

(F#m)
43.510 exibições

Comentários 2

  • Ivens Ivens: Postado em 10/01/2014 11:11

    é perfeito vc conseguiram tocar ?

  • bielzinhol bielzinhol: Postado em 24/06/2011 20:19

    Incrivelmente Perfeita!

Composição: Nazareth
Esse não é o compositor? Avise-nos.
Contribuição: ..:::Gilson :::.. Correções: heitorfavaro e mais 1 »
Exibir acordes »
publicidade
fechar