Vou Deixar Que Você Se Vá

Nenhum de Nós

 Nenhum de Nós
Intro:

G|------------------------------|
D|------------------------------|
A|-2-2---4-4---2-2---4-4--------|
E|----2-2---0-0---2-2---0-0-0-0-|

G|------------------------------------------|
D|------------------------------------------|
A|-2-2---2-2--------------------------------| 2vezes
E|----2-2---2-2-1--0-0-0--5-5-5--0-0-0--5-2-|

Verso 1:

G|--------------------------------------------|
D|--------------------------------------------|
A|-2-2-----2-2--------------------------------|
E|----2-2-1---2-2-1--0-0-0--5-5-5--0-0-0--5-2-|

Verso 2:

G|-----------------------------------------------------------|
D|-----------------------------------------------------------|
A|-2-2-----2-2-----------------------------------------------|
E|----2-2-1---2-2-1--0-0-0--5-5-5--0-0-0--5-5-5--0-0-0--5-2-|

Refrão:

G|--------------------|
D|--------------------|
A|-2-2-----4-4-4-4----|     3 vezes
E|----2-2-2-------0-0-|

G|------------------------|
D|------------------------|
A|-2-2-----4-4-4-4--------|    
E|----2-2-2-------0-0-0-0-|

Verso 3:

G|-----------------------------------------------------------------------|
D|-----------------------------------------------------------------------|
A|-2-2---2-2-------------------------------------------------------------|
E|----2-2---2-2-1--0-0-0--5-5-5--0-0-0--5-5-5--0-0-0--5-5-5--0-0-0--5-2-|

Versos 1 e 2

Refrão

Fazer o refrão(na parte do solo)

Refrão até o fim

Parte final:

G|-------------------|
D|-------------------|
A|--------3-5-7-9-11-|
E|-1-3-5-7-----------|


_______________________________________________________
Contribuição: Rafael Giassi Banda_DaRRua(rafaelgiassi@hotmail.com)

Comentários 0

publicidade
fechar