Nívea Soares

Meu Maior Amor

90.843 exibições
Tom: D#

E|-----------------------------------------------------------------------------------------]Repete 4X
B|--------------10b11r10-------------10b11r10--------------10b11r10------------------------]
G|-------8----8-10b11r10-8-----8---8-10b11r10-8-----8----8-10b11r10-8-------8----8---------]
D|-10-10---10--------------8-8---8--------------7-7----7--------------10-10---10---8-8-9-10] (Na ultima vez 10~)
A|-----------------------------------------------------------------------------------------]
E|-----------------------------------------------------------------------------------------]



b= bend de 1/2 
*** Existe um aproveitamento bastante interessante na parte do bend. Então sugiro que deixem soar bem ele ***


E|---------------------------------------------------------------------]
B|---------------------------------------------------------------------]
G|----5(14x)-7-7-8(14x)--3(14x)-10(14x)--------------------------------]
D|---------------------------------------------------------------------]
A|---------------------------------------------------------------------]
E|---------------------------------------------------------------------]


*** Dois toques na casa 7 só de passagem ***

Intro 2x: Cm  Cm/Bb  F/A  Cm/Bb

      Cm           Eb9
Me atraiu , me alcançou
                Bb9      Fm7
Me constrangeu e me salvou
     Cm            Eb9
Me libertou e me curou
               Bb9        Fm7
Me trouxe vida , me incendiou

   Ab  Cm        Bb
O teu amor para sempre viverei
   Ab  Cm        Bb
O teu amor para sempre cantarei
    Ab    Cm      Bb
Em tua alegria forte serei
    Fm       Gm7         Cm
Jesus , és o meu maior amor

Intro 2x: Cm Cm/Bb F/A Cm/Bb

Passagem para ponte : Cm


E|---------------------------------------------------------------------]
B|---------------------------------------------------------------------]
G|----5~---7/8~--8/12-7~--7/10--13~~~--13\-----------------------------]
D|---------------------------------------------------------------------]
A|---------------------------------------------------------------------]
E|---------------------------------------------------------------------]


E|----------------------------------------------------------------------------]
B|----------------------------------------------------------------15--15--13--]
G|-5(14x)-7-7-8(14x)--8/13-13-13-13---7(14x)---10(4x)--13(14x)----13--13--13--]
D|----------------------------------------------------------------------------]
A|----------------------------------------------------------------------------]
E|----------------------------------------------------------------------------]



Cm                      Eb
Ao que se assenta no trono e ao cordeiro
           Bb                        Fm
seja honra ,gloria e o poder pra sempre
Cm                     Eb
Ao que se assenta no trono e ao cordeiro
           Bb                        Fm
seja honra ,gloria e o poder pra sempre

   Ab  Cm        Bb
O teu amor para sempre viverei
   Ab  Cm       Bb
O teu amor para sempre cantarei
    Ab    Cm    Bb
Em tua alegria forte serei
    Fm       Gm7        Cm
Jesus , és o meu maior amor
    Composição: Nívea SoaresColaboração e revisão:
    • moiss
    • air2011
    • Ulisses
    • diego
    • +3

    Comentários 7

    140 .
    • air2011 air2011: Em 08/12/2015 12:22

      Lembrando que essa música possui duas guitarras! :p Então quero fazer algumas adaptações das duas guitarras.

    • Anderson Anderson: Em 22/10/2015 13:43

      Tablaturas! Please!!

    • quindere quindere: Em 28/01/2015 16:51

      Vídeo Aula Por Favor

    • Diogo Diogo : Em 24/01/2015 15:32

      Fiz a vídeo aula dessa música, ta bem simplificada, procura no youtube, meu maior amor video aula... canal canção favorita! :)

    • evellynrockroll evellynrockroll: Em 30/01/2013 17:02

      video aula de teclado por favor

    • tomazela tomazela: Em 10/01/2013 22:57

      Tem no you tube , é só pesquisar no canal da nivea soares mesmo ;P

    • jose.leandro jose.leandro: Em 03/06/2012 12:36

      video aula por favor pelomenos do solo inicial

    140 cancelar

    conseguiu tocar?

    • Vinicius
    • quindere
    • Icaro

    covers

    Grave um vídeo tocando Meu Maior Amor e mande pra gente!

    Ex.: http://www.youtube.com/watch?v=0IvSvIwGdwk
    ver covers de outras músicas »
    0:00 / 0:00

    Capítulos

      2 versões de violão dificuldade exibições contribuição e correção
      2 versões de guitarra dificuldade exibições contribuição e correção
      2 versões de cavaco dificuldade exibições contribuição e correção
      2 versões de teclado dificuldade exibições contribuição e correção
      3 versões de Guitar Proformatodownloadscontribuição
      play/pausefechar subir/descer velocidade
      6ª corda E5ª corda A4ª corda D3ª corda G2ª corda B1ª corda E
        acordes
        publicidad
        fechar
        ok