Cifra Club

Meu Maior Amor

Nívea Soares

Cifra: Principal
exibições 133.762
Tom: D#
[Intro] Cm  Cm/Bb  F/A  Cm/Bb
        Cm  Cm/Bb  F/A  Cm/Bb

E|------------------------------------------------------------------------------------------]
B|--------------10b11r10-------------10b11r10--------------10b11r10-------------------------]
G|-------8----8-10b11r10-8-----8---8-10b11r10-8-----8----8-10b11r10-8-------8----8-10-------]  (4X)
D|-10-10---10--------------8-8---8--------------7-7----7--------------10-10---10------8-9-10] 
A|------------------------------------------------------------------------------------------]
E|------------------------------------------------------------------------------------------]

        Cm   Eb9  Bb9  Fm7
E|---------------------------------------|
B|---------------------------------------|
G|--------8(7x)-----10(7x)---------------|
D|--10(7x)-----8(7x)---------------------|
A|---------------------------------------|
E|---------------------------------------|

       Cm           Eb9
Me atraiu, me alcançou
            Bb9         Fm7
Me constrangeu e me salvou
         Cm         Eb9
Me libertou e me curou
           Bb9            Fm7
Me trouxe vida, me incendiou

   Ab   Cm       Bb
O teu amor para sempre viverei
   Ab   Cm       Bb
O teu amor para sempre cantarei
    Ab      Cm  Bb
Em tua alegria forte serei
   Fm        Gm7
Jesus, és o meu maior amor

( Cm  Cm/Bb  F/A  Cm/Bb )
( Cm  Cm/Bb  F/A  Cm/Bb )

E|------------------------------------------------------------------------------------------]
B|--------------10b11r10-------------10b11r10--------------10b11r10-------------------------]
G|-------8----8-10b11r10-8-----8---8-10b11r10-8-----8----8-10b11r10-8-------8----8-10-------]  (2X)
D|-10-10---10--------------8-8---8--------------7-7----7--------------10-10---10------8-9-10] 
A|------------------------------------------------------------------------------------------]
E|------------------------------------------------------------------------------------------]

        Cm   Eb9  Bb9  Fm7
E|---------------------------------------|
B|---------------------------------------|
G|--------8(7x)-----10(7x)---------------|
D|--10(7x)-----8(7x)---------------------|
A|---------------------------------------|
E|---------------------------------------|

       Cm           Eb9
Me atraiu, me alcançou
            Bb9         Fm7
Me constrangeu e me salvou
         Cm         Eb9
Me libertou e me curou
           Bb9            Fm7
Me trouxe vida, me incendiou

   Ab   Cm       Bb
O teu amor para sempre viverei
   Ab   Cm       Bb
O teu amor para sempre cantarei
    Ab      Cm  Bb
Em tua alegria forte serei
   Fm     Gm7
Jesus, Jesus
   Ab   Cm       Bb
O teu amor para sempre viverei
   Ab   Cm       Bb
O teu amor para sempre cantarei
    Ab      Cm  Bb
Em tua alegria forte serei
   Fm        Gm7
Jesus, és o meu maior amor

(Cm)

E|---------3-6--------|--------3-6------10-10-8--|--------3-6---------------------|
B|-------4----3-3/9---|------4----3-3/9--9--9-9--|------4----3-3/9--9-8-----------|
G|---5-7--------------|--5-7---------------------|--5-7----------------10-8-10----|
D|--------------------|--------------------------|----------------------------11--|
A|--------------------|--------------------------|--------------------------------|
E|--------------------|--------------------------|--------------------------------|

E|-----------------------------------|
B|---------4-4-6-6-7-7-9-9-9-9-9-----|
G|---5-7--3-3-5-5-6-6-8-8-8-8-8------|
D|-----------------------------------|
A|-----------------------------------|
E|-----------------------------------|

Cm                     Eb
Ao que se assenta no trono e ao cordeiro
      Bb                          Fm
Seja honra ,gloria e o poder pra sempre
Cm                     Eb
Ao que se assenta no trono e ao cordeiro
      Bb                          Fm
Seja honra ,gloria e o poder pra sempre
Cm                     Eb
Ao que se assenta no trono e ao cordeiro
      Bb                          Fm
Seja honra ,gloria e o poder pra sempre
Cm                     Eb
Ao que se assenta no trono e ao cordeiro
      Bb                          Fm
Seja honra ,gloria e o poder pra sempre

   Ab   Cm       Bb
O teu amor para sempre viverei
   Ab   Cm       Bb
O teu amor para sempre cantarei
    Ab      Cm  Bb
Em tua alegria forte serei
   Fm     Gm7
Jesus, Jesus
   Ab   Cm       Bb
O teu amor para sempre viverei
   Ab   Cm       Bb
O teu amor para sempre cantarei
    Ab      Cm  Bb
Em tua alegria forte serei
   Fm        Gm7
Jesus, és o meu maior amor
Acordes para:

    0 comentários

      mostrar mais comentários

      Conseguiu tocar?

      3tocaram0ainda não

      Grave um vídeo tocando Meu Maior Amor e mande pra gente!

      00:00 / 00:00
      outros vídeos desta música
      repetirqualidadeautomática
      Outro vídeos desta música
        00:00 / 00:00
        automática
        OK