Enviar cifraEntrar

Meu Maior Amor

Nívea Soares

Cifra: Principal
exibições 105.816
Tom: D#

E|------------------------------------------------------------------------------------------]Repete 4X
B|--------------10b11r10-------------10b11r10--------------10b11r10-------------------------]
G|-------8----8-10b11r10-8-----8---8-10b11r10-8-----8----8-10b11r10-8-------8----8-10-------]
D|-10-10---10--------------8-8---8--------------7-7----7--------------10-10---10------8-9-10] (Na ultima vez 10~)
A|------------------------------------------------------------------------------------------]
E|------------------------------------------------------------------------------------------]



b= bend de 1/2 
*** Existe um aproveitamento bastante interessante na parte do bend. Então sugiro que deixem soar bem ele ***


E|---------------------------------------------------------------------]
B|---------------------------------------------------------------------]
G|----5(14x)-7-7-8(14x)--3(14x)-10(14x)--------------------------------]
D|---------------------------------------------------------------------]
A|---------------------------------------------------------------------]
E|---------------------------------------------------------------------]


*** Dois toques na casa 7 só de passagem ***

Intro 2x: Cm  Cm/Bb  F/A  Cm/Bb

      Cm           Eb9
Me atraiu , me alcançou
                Bb9      Fm7
Me constrangeu e me salvou
     Cm            Eb9
Me libertou e me curou
               Bb9        Fm7
Me trouxe vida , me incendiou

Riff do Refrão


E|-------------------------------------------------------------------]
B|-------------------------------------------------------------------]
G|------8---8---8-10-------8---8----8-10-----8---8---8-10--8-8-7-7---]
D|--6-6---6---6------10-10--10---10------8-8---8---8-------8-8-8-8---]
A|-------------------------------------------------------------------]
E|-------------------------------------------------------------------]


Ab  Cm        Bb
O teu amor para sempre viverei
   Ab  Cm        Bb
O teu amor para sempre cantarei
    Ab    Cm      Bb
Em tua alegria forte serei
    Fm       Gm7         Cm
Jesus , és o meu maior amor

Intro 2x: Cm Cm/Bb F/A Cm/Bb

Passagem para ponte : Cm


E|---------------------------------------------------------------------]
B|---------------------------------------------------------------------]
G|----5~---7/8~--8/12-7~--7/10--13~~~--13\-----------------------------]
D|---------------------------------------------------------------------]
A|---------------------------------------------------------------------]
E|---------------------------------------------------------------------]


E|----------------------------------------------------------------------------]
B|----------------------------------------------------------------15--15--13--]
G|-5(14x)-7-7-8(14x)--8/13-13-13-13---7(14x)---10(4x)--13(14x)----13--13--13--]
D|----------------------------------------------------------------------------]
A|----------------------------------------------------------------------------]
E|----------------------------------------------------------------------------]

* Faz essa parte nas duas primeiras vezes que canta "Ao que se assenta..." e depois entra esse riff \/


E|--------------------------------------------------------------]
B|------11-11----11-11-11-------11------9-------9-8-------------]
G|---12-12-12-12-12-12-12-[2x]--10-[7x]-8--[3x]-----10-8-10-----]
D|---13-------13--------------------------------------------10--]
A|--------------------------------------------------------------]
E|--------------------------------------------------------------]


E|-------------------------------------------------------------------]
B|------11-11----11-11-11-------11-----9-9-9-9-9-9-9-9-9-9-9-9-9-----]
G|---12-12-12-12-12-12-12-[2x]--10-[7x]-8-8-8-8-8-8-8-8-8-8-8-8-8-----]
D|---13-------13-----------------------------------------------------]
A|-------------------------------------------------------------------]
E|-------------------------------------------------------------------]

Logo após volta pro refrão !

Cm                      Eb
Ao que se assenta no trono e ao cordeiro
           Bb                        Fm
seja honra ,gloria e o poder pra sempre
Cm                     Eb
Ao que se assenta no trono e ao cordeiro
           Bb                        Fm
seja honra ,gloria e o poder pra sempre

   Ab  Cm        Bb
O teu amor para sempre viverei
   Ab  Cm       Bb
O teu amor para sempre cantarei
    Ab    Cm    Bb
Em tua alegria forte serei
    Fm       Gm7        Cm
Jesus , és o meu maior amor
  • 1
  • 2
  • 3
  • 4
  • 5
  • 6
  • 7
  • 8
  • 9
  • 10
  • 11
  • 12
    Acordes para:

      0 comentários

        mostrar mais comentários

        Conseguiu tocar?

        3tocaram0ainda não

        Grave um vídeo tocando Meu Maior Amor e mande pra gente!

        00:00 / 00:00
        outros vídeos desta música
        repetirqualidadeautomática
        • automática
        Outro vídeos desta música
          00:00 / 00:00
          automática
          • automática
          Acordes para:violão e guitarra
          dificuldadeexibiçõescontribuições
          fecharplay/pause subir/descer velocidade
            acordes
            fechar
            OK
            Feedback