Cifra Club

Aprenda

Em Tua Presença

Nívea Soares

Cifra: Principal (violão e guitarra)
tom: G
[Intro] G  C9  Am7  Em7  C9

E|-------------------------------------------|
B|-------3---------3----------3---------3----|
G|-----0-----0---0-----0----0-----0---0----0-|
D|---0-----0---0-----0----0-----0---0----0---|
A|-------------------------------------------|
E|-3---------------------3-------------------|

E|-------------------------------------------|
B|-------3---------3----------3---------3----|
G|-----0-----0---0-----0----0-----0---0----0-|
D|---x-----x---x-----0----x-----x---x----x---|
A|--3--------------------3-------------------|
E|-------------------------------------------|

E|-------------------------------------------|
B|-------1---------0-----------0---------0---|
G|-----0-----0---0-----0-----0-----0---0---0-|
D|---2-----2---2-----2-----2-----2---2----2--|
A|-0-----------------------------------------|
E|-----------------------0-------------------|

E|-------------------------------------------|
B|-------3---------3-----------3--------3----|
G|-----0-----0---0-----0-----0----0---0----0-|
D|---x-----x---x-----x-----x----x---x----0---|
A|-3---------------------3-------------------|
E|-------------------------------------------|

[Primeira Parte]

            G           C9
Eu quero estar neste lugar
          Am7             
Onde o pecado é perdoado 
      Em7               C9
E as culpas são levadas
            G           C9
Eu quero estar neste lugar
         Am7           
Onde o amor não se esfrie 
     Em7              C9
E o fogo não se apague

           Am7      Em7   G  D4  D
Em Tua presença Senhor Jesus
           Am7      Em7   G
Em Tua presença Senhor Jesus

[Pré-Refrão]

         C9    Am7   
Santo Espírito
       Em7           D
Eu me rendo ao Teu agir
       C9    Am7   
Meu anseio é
        Em7         D
Permanecer em Teu amor

[Refrão]

           C9       Am7
Em Tua presença Senhor
           Em7  D
Em Tua presença
           C9       Am7
Em Tua presença Senhor
           Em7  D
Em Tua presença

[Solo] C9  Am7  Em7  D9
       C9  Am7  Em7  D9

E|-12-12-12-15-15-15-14-14-14----------------|
B|----------------------------12-12-12-12-12-|
G|-------------------------------------------|
D|-------------------------------------------|
A|-------------------------------------------|
E|-------------------------------------------|

E|----12-12-12-15-15-15-14-14-14-------------|
B|-12----------------------------10-10-10-10-|
G|-------------------------------------------|
D|-------------------------------------------|
A|-------------------------------------------|
E|-------------------------------------------|

E|--------------------10-10----------10-10---|
B|-10-10-10--10h12-12-12----10h12-12-12------|
G|-------------------------------------------|
D|-------------------------------------------|
A|-------------------------------------------|
E|-------------------------------------------|
    
E|---------------------------------7-7-7-----|
B|-10h12-10\8-7-7-7-8-8-8-10-10-10-----------|
G|-------------------------------------------|
D|-------------------------------------------|
A|-------------------------------------------|
E|-------------------------------------------|

E|-10-10-10~---------------------------------|
B|-------------------------------------------|
G|-------------------------------------------|
D|-------------------------------------------|
A|-------------------------------------------|
E|-------------------------------------------|

E|-12-12-12-15-15-15-14-14-14----------------|
B|----------------------------12-12-12-12-12-|
G|-------------------------------------------|
D|-------------------------------------------|
A|-------------------------------------------|
E|-------------------------------------------|

E|----12-12-12-15-15-15-14-14-14-------------|
B|-12----------------------------10-10-10-10-|
G|-------------------------------------------|
D|-------------------------------------------|
A|-------------------------------------------|
E|-------------------------------------------|
    
E|--------------------10-10----------10-10---|
B|-10-10-10--10h12-12-12----10h12-12-12------|
G|-------------------------------------------|
D|-------------------------------------------|
A|-------------------------------------------|
E|-------------------------------------------|

E|-------------------------------------------|
B|-10h12-10\8-7-7-7-8-8-8-5-5-5-3~-----------|
G|-------------------------------------------|
D|-------------------------------------------|
A|-------------------------------------------|
E|-------------------------------------------|

[Segunda Parte]

            G           C9
Eu quero estar neste lugar
          Am7               
Onde o poder não me corrompa
    Em7             C9
Riquezas não me ceguem
            G           C9
Eu quero estar neste lugar
        Am7            
Onde o mundo não me atraia
    Em7             C9
Paixões não me seduzam

[Pré-Refrão]

           Am7      Em7   G  D
Em Tua presença Senhor Jesus
           Am7      Em7   G
Em Tua presença Senhor Jesus

[Refrão]

         C9   Am7       Em7           D
Santo Espírito,  eu me rendo ao Teu agir
       C9    Am7      Em7         D
Meu anseio é, permanecer em Teu amor

           C9       Am7
Em Tua presença Senhor
           Em7  D
Em Tua presença
           C9       Am7
Em Tua presença Senhor
           Em7  D
Em Tua presença

           C9       Am7
Em Tua presença Senhor
           Em7  D
Em Tua presença
           C9       Am7
Em Tua presença Senhor
           Em7  D
Em Tua presença

[Solo] C9  Am7  Em7  D9
       C9  Am7  Em7  D9
       C9  Am7  Em7  D9

E|-12-12-12-15-15-15-14-14-14----------------|
B|----------------------------12-12-12-12-12-|
G|-------------------------------------------|
D|-------------------------------------------|
A|-------------------------------------------|
E|-------------------------------------------|

E|----12-12-12-15-15-15-14-14-14-------------|
B|-12----------------------------10-10-10-10-|
G|-------------------------------------------|
D|-------------------------------------------|
A|-------------------------------------------|
E|-------------------------------------------|

E|--------------------10-10----------10-10---|
B|-10-10-10--10h12-12-12----10h12-12-12------|
G|-------------------------------------------|
D|-------------------------------------------|
A|-------------------------------------------|
E|-------------------------------------------|
    
E|---------------------------------7-7-7-----|
B|-10h12-10\8-7-7-7-8-8-8-10-10-10-----------|
G|-------------------------------------------|
D|-------------------------------------------|
A|-------------------------------------------|
E|-------------------------------------------|

E|-10-10-10~---------------------------------|
B|-------------------------------------------|
G|-------------------------------------------|
D|-------------------------------------------|
A|-------------------------------------------|
E|-------------------------------------------|

E|-12-12-12-15-15-15-14-14-14----------------|
B|----------------------------12-12-12-12-12-|
G|-------------------------------------------|
D|-------------------------------------------|
A|-------------------------------------------|
E|-------------------------------------------|

E|----12-12-12-15-15-15-14-14-14-------------|
B|-12----------------------------10-10-10-10-|
G|-------------------------------------------|
D|-------------------------------------------|
A|-------------------------------------------|
E|-------------------------------------------|
    
E|--------------------10-10----------10-10---|
B|-10-10-10--10h12-12-12----10h12-12-12------|
G|-------------------------------------------|
D|-------------------------------------------|
A|-------------------------------------------|
E|-------------------------------------------|

E|---------------------------------7-7-7-----|
B|-10h12-10\8-7-7-7-8-8-8-10-10-10-----------|
G|-------------------------------------------|
D|-------------------------------------------|
A|-------------------------------------------|
E|-------------------------------------------|

E|-10-10-10--19-------19-------19--------19--|
B|--------------17-17----17-17----17-17------|
G|-------------------------------------------|
D|-------------------------------------------|
A|-------------------------------------------|
E|-------------------------------------------|

E|--------19/20\19-17-19-------19-------19---|
B|-17-17-----------------17-17----17-17------|
G|-------------------------------------------|
D|-------------------------------------------|
A|-------------------------------------------|
E|-------------------------------------------|

E|--------19--------19/20\19-17-19-------17--|
B|-17-17-----17-17-----------------17-17-----|
G|-------------------------------------------|
D|-------------------------------------------|
A|-------------------------------------------|
E|-------------------------------------------|

E|-------15--------17------19---15-14-14-14--|
B|-17-17-----17-17----17-17---17---15-15-15--|
G|-------------------------------------------|
D|-------------------------------------------|
A|-------------------------------------------|
E|-------------------------------------------|

E|-14-14-14--15--17--------------------------|
B|-15-15-15--15--15--------------------------|
G|-------------------------------------------|
D|-------------------------------------------|
A|-------------------------------------------|
E|-------------------------------------------|


[Pré-Refrão]

         C9    Am7   
Santo Espírito
       Em7           D
Eu me rendo ao Teu agir
       C9    Am7   
Meu anseio é
        Em7         D
Permanecer em Teu amor

[Refrão]

           C9       Am7
Em Tua presença Senhor
           Em7  D
Em Tua presença
           C9       Am7
Em Tua presença Senhor
           Em7  D
Em Tua presença

           C9       Am7
Em Tua presença Senhor
           Em7  D
Em Tua presença
           C9       Am7
Em Tua presença Senhor
           Em7  D
Em Tua presença
Composição de Nívea Soares
1.007.589 exibições
    • ½ Tom
    • A
    • Bb
    • B
    • C
    • Db
    • D
    • Eb
    • E
    • F
    • F#
    • G
    • Ab
  • Adicionar à lista

    0 comentários

    Ver todos os comentários
    00:00 / 00:00
    Outros vídeos desta música
    Repetir Qualidade Automático
    Outros vídeos desta música
    00:00 / 00:00
    Automático

    Cifra Club Pro

    Aproveite o Cifra Club com benefícios exclusivos e sem anúncios
    Cifra Club Pro
    Aproveite o Cifra Club com benefícios exclusivos e sem anúncios
    OK