Cifra Club

O Senhor É Bom

Nívea Soares

Cifra: Principal (violão e guitarra)
Tom: E
[Intro] C#m  A
        C#m  A

E|-------------------------------------|
B|----------------------7--------------|
G|---/6-8--8/9--4--4/6-----------------| (2x)
D|-------------------------------------|
A|-------------------------------------|
E|-------------------------------------|

 C#m            A                   C#m              A
Bendirei ao Senhor pra sempre, proclamarei que o senhor é bom
 C#m            A                   C#m              A
Bendirei ao Senhor pra sempre, proclamarei que o senhor é bom

          C#m         B     A
O Senhor reina, reinará em majestade
          C#m          B       A
O Senhor reina, em justiça e em verdade
          C#m         B      A
O Senhor reina, reinará com majestade
          C#m          B       A
O Senhor reina, em justiça e em verdade

      E
O Senhor é bom
      A
O Senhor é bom
       C#m         B          A
Sua misericórdia, dura, para sempre
      E
O Senhor é bom
      A
O Senhor é bom
       C#m         B          A
Sua misericórdia, dura, para sempre

( C#m  A )
( C#m  A )

E|-------------------------------------|
B|----------------------7--------------|
G|---/6-8--8/9--4--4/6-----------------| (2x)
D|-------------------------------------|
A|-------------------------------------|
E|-------------------------------------|

 C#m            A                   C#m              A
Bendirei ao Senhor pra sempre, proclamarei que o senhor é bom
 C#m            A                   C#m              A
Bendirei ao Senhor pra sempre, proclamarei que o senhor é bom

          C#m         B        A
O Senhor reina, reinará em majestade
          C#m          B           A
O Senhor reina, em justiça e em verdade
          C#m         B           A
O Senhor reina, reinará com majestade
          C#m          B          A
O Senhor reina, em justiça e em verdade

      E
O Senhor é bom
      A
O Senhor é bom
       C#m         B          A
Sua misericórdia, dura, para sempre
      E
O Senhor é bom
      A
O Senhor é bom
       C#m         B          A
Sua misericórdia, dura, para sempre
      E
O Senhor é bom
      A
O Senhor é bom
       C#m         B          A
Sua misericórdia, dura, para sempre
      E
O Senhor é bom
      A
O Senhor é bom
       C#m        B/D#  E     A
Sua misericórdia, dura, para sempre

[Solo] E  A  C#m  B  A
       E  A  C#m  B  A

E|------------------------------------------------------------------------|
B|-----------------------------------------------------------12-14-16-17--|
G|--8-9-16--8-9-14---6---4---2------8-9-16--8-9-14---6---4----------------| (2x)
D|-------------------6---4---2-----------------------6---4----------------|
A|--6-7-14--6-7-12---4---2---0------6-7-14--6-7-12---4---2----------------|
E|------------------------------------------------------------------------|

          C#m         B/D#     A
O Senhor reina, reinará em majestade
          C#m          B/D#       A
O Senhor reina, em justiça e em verdade
          C#m         B         A
O Senhor reina, reinará com majestade
          C#m          B/D#       A
O Senhor reina, em justiça e em verdade

      E
O Senhor é bom
      A
O Senhor é bom
       C#m         B          A
Sua misericórdia, dura, para sempre
      E
O Senhor é bom
      A
O Senhor é bom
       C#m         B          A
Sua misericórdia, dura, para sempre
      E
O Senhor é bom
      A
O Senhor é bom
       C#m         B          A
Sua misericórdia, dura, para sempre
exibições 193.447

0 comentários

mostrar mais comentários

Conseguiu tocar?

19 tocaram 5 ainda não

Grave um vídeo tocando O Senhor É Bom e mande pra gente!

00:00 / 00:00
outros vídeos desta música
repetir qualidade Automático
Outros vídeos desta música
00:00 / 00:00
Automático
OK