Cifra Club

Aprenda

Meu Maior Amor

Nívea Soares

Cifra: V2 (violão e guitarra)
Tom: A#
E|------------------------------------------|
A|------------------------------------------|
D|-----10-10--10---------8-8-8--------------|
G|-----------8--8--10b-8~----8-8-10b-8~-----|
B|-----------------10b-----------10b--------|
E|------------------------------------------|

E|---------------------------------------------|
A|---------------------------------------------|
D|----7-7-7-7------8-------8----8--------------|
G|-------8-8-10b-----10-10---10----8-8-9-10----|
B|-----------10b-------------------------------|
E|---------------------------------------------|

E|-------------------------------------------------------------------------|
Bl--------------------------------------------8-8-8-8-8-8-8-8-8-8-8-8-8-8-8|
G|10-10-10-10-10-10-10-10-10-10-10-10-10-10-10-----------------------------|
D|-------------------------------------------------------------------------|
A|-------------------------------------------------------------------------|
E|-------------------------------------------------------------------------|

E|-------------------------------------------------------------------------------------------|
Bl-------------------------------10-10-10-10-10-10-10-10-10-10-10-10-10-10-10----------------|
G|-8-8-8-8-8-8-8-8-8-8-8-8-8-8-8-------------------------------------------------------------|
D|-------------------------------------------------------------------------------------------|
A|-------------------------------------------------------------------------------------------|
E|-------------------------------------------------------------------------------------------|

Composição de Nívea Soares
Colaboração e revisão:
8.501 exibições
    • ½ Tom
    • A
    • Bb
    • B
    • C
    • Db
    • D
    • Eb
    • E
    • F
    • F#
    • G
    • Ab
  • Adicionar à lista

    0 comentários

    Mostrar mais comentários
    00:00 / 00:00
    outros vídeos desta música
    repetir qualidade Automático
    Outros vídeos desta música
    00:00 / 00:00
    Automático

    Cifra Club Pro

    Aproveite o Cifra Club com benefícios exclusivos e sem anúncios
    7 dias grátis
    Cifra Club Pro
    Aproveite o Cifra Club com benefícios exclusivos e sem anúncios
    7 dias grátis
    OK