Cifra Club

Aprenda

Me Ama

Diante do Trono

Cifra: Principal (violão e guitarra)
tom: A
[Intro] A  D/F#  E  D

E|------9----------9----------9--------9--9--9--9----|
B|---10---10----10---10----10---10----10-10-10-10----|
G|-9----------9----------9-------------9--9--9--9----|
D|---------------------------------------------------|
A|---------------------------------------------------|
E|---------------------------------------------------|

E|------9----------9----------9--------9--9--9--9----|
B|---10---10----10---10----10---10----10-10-10-10----|
G|-7----------7----------7-------------7--7--7--7----|
D|---------------------------------------------------|
A|---------------------------------------------------|
E|---------------------------------------------------|
E|------12----------12----------12-----12-12-12-12---|
B|---12----12----12----12----12---12---12-12-12-12---|
G|-9-----------9-----------9------------9--9--9--9---|
D|---------------------------------------------------|
A|---------------------------------------------------|
E|---------------------------------------------------|

E|------9----------9----------9--------9--9--9--9----|
B|---10---10----10---10----10---10----10-10-10-10----|
G|-7----------7----------7-------------7--7--7--7----|
D|---------------------------------------------------|
A|---------------------------------------------------|
E|---------------------------------------------------|

[Primeira Parte]

 A
Tem ciumes de mim
D/F#
O Seu amor é como um furacão
  E                                  D
E eu me rendo ao vento de Sua misericórdia
A                                          D/F#
Então de repente não vejo mais minhas aflições, eu só vejo á glória
     E
E percebo quão maravilhoso Ele é
     D
E o tanto que Ele me quer

[Refrão]

A           D/F#
Ô, Ele me amou
          E
Ô, Ele me ama
         D
Ele me amou

[Solo]

E|-------------------------------------------|
B|-------------------------------------------|
G|-14~-13~-6~---14~-13~-6~---14~-13~-6/14~---|
D|-------------------------------------------|
A|-------------------------------------------|
E|-------------------------------------------|

[Primeira Parte]

 A
Tem ciumes de mim
D/F#
O Seu amor é como um furacão
  E                                  D
E eu me rendo ao vento de Sua misericórdia
A                                          D/F#
Então de repente não vejo mais minhas aflições, eu só vejo á glória
     E
E percebo quão maravilhoso Ele é
     D
E o tanto que Ele me quer

[Refrão]

A           D/F#
Ô, Ele me amou
          E
Ô, Ele me ama
         D
Ele me amou

[Solo]

E|-------------------------------------------|
B|-------------------------------------------|
G|-14~-13~-6~---14~-13~-6~---14~-13~-6/14~---|
D|-------------------------------------------|
A|-------------------------------------------|
E|-------------------------------------------|

[Refrão]

   A
Me ama
       F#m
Ele me ama
       E
Ele me ama
       D
Ele me ama

   A
Me ama
       F#m
Ele me ama
       E
Ele me ama
       D
Ele me ama

[Segunda Parte]

 A
Somos Sua herança e Ele o nosso galardão
 D/F#
Seu olhar de graça nos atrai à redenção
       E                           D
Se a graça é um oceano estamos afogando

   A
O céu se une à terra como um beijo apaixonado
     D/F#
Meu coração dispara, em meu peito, acelerado
     E
Não tenho tempo pra perder com ressentimentos
        D
Quando penso que Ele

[Refrão]

   A
Me ama
       F#m
Ele me ama
       E
Ele me ama
       D
Ele me ama

   A
Me ama
       F#m
Ele me ama
       E
Ele me ama
       D
Ele me ama

[Final] A  D/F#  E  D
        A  D/F#  E  D

E|------------------------------------------------10--10--10---|
B|--10--10--10--9--9--9--12--12--12--10--10--10---10--10--10---|
G|---9---9---9--9--9--9---9---9---9---9---9---9----------------|
D|-------------------------------------------------------------|
A|-------------------------------------------------------------|
E|-------------------------------------------------------------|

[Refrão]

   A
Me ama
       F#m
Ele me ama
       E
Ele me ama
       D
Ele me ama

   A
Me ama
       F#m
Ele me ama
       E
Ele me ama
       D
Ele me ama

[Final] A  D/F#  E  D

E|------9----------9----------9--------9--9--9--9----|
B|---10---10----10---10----10---10----10-10-10-10----|
G|-9----------9----------9-------------9--9--9--9----|
D|---------------------------------------------------|
A|---------------------------------------------------|
E|---------------------------------------------------|

E|------9----------9----------9--------9--9--9--9----|
B|---10---10----10---10----10---10----10-10-10-10----|
G|-7----------7----------7-------------7--7--7--7----|
D|---------------------------------------------------|
A|---------------------------------------------------|
E|---------------------------------------------------|
E|------12----------12----------12-----12-12-12-12---|
B|---12----12----12----12----12---12---12-12-12-12---|
G|-9-----------9-----------9------------9--9--9--9---|
D|---------------------------------------------------|
A|---------------------------------------------------|
E|---------------------------------------------------|

E|------9----------9----------9--------9--9--9--9----|
B|---10---10----10---10----10---10----10-10-10-10----|
G|-7----------7----------7-------------7--7--7--7----|
D|---------------------------------------------------|
A|---------------------------------------------------|
E|---------------------------------------------------|
Composição de Ana Paula Valadão Bessa / John Mark McMillan
Colaboração e revisão:
  • Getúlio Vasconcelos
  • Breno
  • Maycon Rodrigues
1.090.817 exibições
  • Simplificar cifra
    • ½ Tom
    • A
    • Bb
    • B
    • C
    • Db
    • D
    • Eb
    • E
    • F
    • F#
    • G
    • Ab
  • Adicionar à lista

    0 comentários

    Ver todos os comentários
    00:00 / 00:00
    outros vídeos desta música
    repetir qualidade Automático
    Outros vídeos desta música
    00:00 / 00:00
    Automático

    Cifra Club Pro

    Aproveite o Cifra Club com benefícios exclusivos e sem anúncios
    Cifra Club Pro
    Aproveite o Cifra Club com benefícios exclusivos e sem anúncios
    OK