Cifra Club

Ousado Amor

Nívea Soares

Cifra: Principal (violão e guitarra)
Tom: Bb
[Intro] Gm  F  Eb  Bb
        Gm  F  Eb  Bb
        Gm  F  Eb  Bb
        Gm  F  Eb  Bb

E|-6-6-6-6--5-5-5-5--------------|
B|-------------------8-8--6------|
G|--------------------------7~---|
D|-------------------------------|
A|-------------------------------|
E|-------------------------------|

E|-8-8-8-8--6-6-5-5--------------|
B|-------------------8-8--6------|
G|--------------------------7~---|
D|-------------------------------|
A|-------------------------------|
E|-------------------------------|

E|-6-6-6-6--5-5-5-5--------------|
B|-------------------8-8--6------|
G|--------------------------7~---|
D|-------------------------------|
A|-------------------------------|
E|-------------------------------|

E|-8-8-8-8--6-6-5-5--------------|
B|-------------------8-8--6------|
G|--------------------------7~---|
D|-------------------------------|
A|-------------------------------|
E|-------------------------------|

Gm             F
Antes de eu falar

         Eb
Tu cantavas sobre mim
Gm              F
  Tu tens sido tão
       Eb
Tão bom  pra mim
Gm                  F
  Antes de eu respirar
              Eb
Sopraste Tua vida em mim
Gm              F
  Tu tens sido tão
       Eb
Tão bom  pra mim

[Refrão]

        Gm          F
Oh, impressionante, infinito
     Eb           Bb
E ousado amor de Deus
         Gm         F
Oh, que deixa as noventa e nove
 Eb              Bb
Só pra me encontrar
               Gm              F
Não posso comprá-lo,  nem merecê-lo
         Eb          Bb
Mesmo assim se entregou
        Gm          F
Oh, impressionante, infinito
     Eb           Bb
E ousado amor de Deus

( Gm  F  Eb  Bb )
( Gm  F  Eb  Bb )

E|-6-6-6-6--5-5-5-5--------------|
B|-------------------8-8--6------|
G|--------------------------7~---|
D|-------------------------------|
A|-------------------------------|
E|-------------------------------|

E|-8-8-8-8--6-6-5-5--------------|
B|-------------------8-8--6------|
G|--------------------------7~---|
D|-------------------------------|
A|-------------------------------|
E|-------------------------------|

Gm             F
  Inimigo eu fui
                Eb
Mas Teu amor lutou por mim
Gm              F
  Tu tens sido tão
       Eb
Tão bom  pra mim
Gm             F
  Não tinha valor
            Eb
Mas tudo pagou por mim
Gm              F
  Tu tens sido tão
       Eb
Tão bom  pra mim

[Refrão]

        Gm          F
Oh, impressionante, infinito
     Eb           Bb
E ousado amor de Deus
         Gm         F
Oh, que deixa as noventa e nove
 Eb              Bb
Só pra me encontrar
               Gm              F
Não posso comprá-lo,  nem merecê-lo
         Eb          Bb
Mesmo assim se entregou
        Gm          F
Oh, impressionante, infinito
     Eb           Bb
E ousado amor de Deus

( Gm  F  Eb  Bb )
( Gm  F  Eb  Bb )
( Gm  F  Eb  Bb )
( Gm  F  Eb  Bb )

E|-6-6-6-6--5-5-5-5--------------|
B|-------------------8-8--6------|
G|--------------------------7~---|
D|-------------------------------|
A|-------------------------------|
E|-------------------------------|

E|-8-8-8-8--6-6-5-5--------------|
B|-------------------8-8--6------|
G|--------------------------7~---|
D|-------------------------------|
A|-------------------------------|
E|-------------------------------|

E|-6-6-6-6--5-5-5-5--------------|
B|-------------------8-8--6------|
G|--------------------------7~---|
D|-------------------------------|
A|-------------------------------|
E|-------------------------------|

E|-8-8-8-8--6-6-5-5--------------|
B|-------------------8-8--6------|
G|--------------------------7~---|
D|-------------------------------|
A|-------------------------------|
E|-------------------------------|

[Ponte]

Gm                  F
  Traz luz para as sombras
           Eb                  Bb
Escala montanhas pra me encontrar
Gm           F
  Derruba muralhas
               Eb                  Bb
Destrói as mentiras, pra me encontrar

Gm                  F
  Traz luz para as sombras
           Eb                  Bb
Escala montanhas pra me encontrar
Gm           F
  Derruba muralhas
               Eb                  Bb
Destrói as mentiras, pra me encontrar

        Gm          F
Oh, impressionante, infinito
     Eb           Bb
E ousado amor de Deus
         Gm         F
Oh, que deixa as noventa e nove
 Eb              Bb
Só pra me encontrar
               Gm              F
Não posso comprá-lo,  nem merecê-lo
         Eb          Bb
Mesmo assim se entregou
        Gm          F
Oh, impressionante, infinito
     Eb           Bb
E ousado amor de Deus

( Gm  F  Eb  Bb )
( Gm  F  Eb  Bb )
( Gm  F  Eb  Bb )
( Gm  F  Eb  Bb )

E|-6-6-6-6--5-5-5-5--------------|
B|-------------------8-8--6------|
G|--------------------------7~---|
D|-------------------------------|
A|-------------------------------|
E|-------------------------------|

E|-8-8-8-8--6-6-5-5--------------|
B|-------------------8-8--6------|
G|--------------------------7~---|
D|-------------------------------|
A|-------------------------------|
E|-------------------------------|

E|-6-6-6-6--5-5-5-5--------------|
B|-------------------8-8--6------|
G|--------------------------7~---|
D|-------------------------------|
A|-------------------------------|
E|-------------------------------|

E|-8-8-8-8--6-6-5-5--------------|
B|-------------------8-8--6------|
G|--------------------------7~---|
D|-------------------------------|
A|-------------------------------|
E|-------------------------------|
exibições 136.280
Acordes para:
    Composição: Caleb Culver Colaboração e revisão:
    • Thiago Almeida
    • Jairo Luiz

    0 comentários

    mostrar mais comentários

    Conseguiu tocar?

    18 tocaram 23 ainda não

    Grave um vídeo tocando Ousado Amor e mande pra gente!

    00:00 / 00:00
    outros vídeos desta música
    repetir qualidade Automático
    Outros vídeos desta música
    00:00 / 00:00
    Automático
    OK