Reina sobre mim

Nívea Soares

 Nívea Soares
Tom: A
		
Intro 2x: A9  D9  A9  E4  E

              PARTE 1

E|--------------------------------------------|
B|--9\10-9-7------7---------------------------|
G|------------9-------------------------------|
D|--------------------------------------------|
A|--------------------------------------------|
E|--------------------------------------------|


             PARTE 2

E|--------------------------------------------|
B|--777-------555----5---7---9--7------7------|
G|----------------6----------------6----------|
D|--------------------------------------------|
A|--------------------------------------------|
E|--------------------------------------------|


A9              E/G#
Correrei para ti, meu Senhor
    D/F#           Bm7
Minh'alma anseia por ti
F#m7          C#m7
  Sou pobre, cego e nu
      Bm7           E4   E
Nada tenho pra te oferecer
F#m7                     C#m7
 Quero aos teus braços me entregar
      D9                          Bm7
Pois sei que tu me aceitas como estou
F#m7            C#m7
 Preciso do teu ouro
    Bm7   G7M   E4 E
Purifica-me, Senhor

F#m7 E D9
 Reina sobre mim
       A9/C#
Eu me rendo a ti
       E4 E   F#m7
Eu me rendo a ti
     E D9
 Reina sobre mim
           A9/C#
Sou tua noiva
           E4 E       (D/F#  E/G# A4 A  D/F#  E/G#  A)
Espero e anseio por ti

(repete a música)

( F#m D A9/C# E F#m D7M C7M(9) E A F#m7 )

  F#m7  E/G#           A4  A9
Jesus,    Reina sobre mim ...

Final: F#m7  E/G#  A4  A9  F#m7  E/G#  A9

Comentários 0

Composição: Nivea Soares
Esse não é o compositor? Avise-nos.
Contribuição: AMARILDO
Exibir acordes »
publicidade
fechar