Me Deixa

O Rappa

 O Rappa
Standard Tuning (E A D G)

Introdução Bateria

Intro e Refrão 
G|----------------------------------------------------------|
D|----------------------------------------------------------|
A|--5-5-5----------3-3-3----------5-5-5---------3-3-3-------|
E|--------5/3-5/3---------5/3-5/3-------5/3-5/3-------------|


Verso
G|----------------------------------------------------------|
D|----------------------------------------------------------|
A|--5---5---5---5---3---3---3---3-3-3-4-5---5---5---5---5---|
E|----5---5---5---5---3---3---3-----------5---5---5---5---5-|
                

É Só Treinar os Slides. O Resto é Facil. É só isso a música Inteira.






_______________________________________________________
Contribuição: Champa®(champa.nwsk@uol.com.br)

Comentários 0

Composição: Beautiful Creatures / Buzz Clifford / Dani Mariuzzo / Diógenes Kafé / Eric L. Brooks / Finho / Jack / Norman Spann / Solomon Linda / Zuzuca
Esse não é o compositor? Avise-nos.
publicidade
fechar