Pretty Fly ( For a White Guy )

The Offspring

 The Offspring
Afinação: (E-A-D-G)

Intro e Verso:
G|----------------------------------------|
D|----------------------------------------|
A|----------------7-5----------------7-5--|
E|--7—-7-2-5-7—-7------7—-7-2-5-7—-7------|

Refrão:
G|----------------------------------------|
D|----------------------------------------|
A|-------8989------8989-5—5--5-7—-7-5-----|
E|--7—-7------7—7-----------5--------5----|

Final do Refrão:
G|-------------------------------------------------------|
D|--------------------------------------5—-5--5-7—-7-----|
A|-------8989------8989-5—-5--5-7—-7-5-------5-------7-7-|
E|--7—-7------7—-7-----------5--------5------------------| ........

G|-------------|
D|-------------| “Hey! Hey! Do that brand new thing!”
A|----987-57---|
E|--77---7--7--|

Ponte “Now he's getting a tattoo...”:
G|--------------------------------|
D|----------------------9---------| Somente o baixo.
A|---------------------------7-5--|
E|--7---5-7---5-7---5-7----7------|

G|-------------------------------------|
D|-----------------------9-7-5-7-5-----| Baixo e Guitarra.
A|---------------------------------7-5-|
E|--7---5-7---5-7---5-7----------------|

Comentários 2

  • lucas lucas: Postado em 15/06/2014 12:59

    isso ai ta errado '-'

  • GaBi GaBi: Postado em 14/05/2012 21:36

    oi

Composição: Bicudo / Chris E. Martin / The Offspring
Esse não é o compositor? Avise-nos.
publicidade
fechar