Maria de Nazaré

Padre Zezinho

 Padre Zezinho
Tom: D
		
(Maria de Nazaré...)

    D            Em	  A7           D
E|-------2----|-------0----|-------0----|-------2----|
B|-----3---3--|-----0---0--|-----2---2--|-----3---3--|
G|---2-------2|---0-------0|---0-------0|---2-------2|  (2x)
D|-0----------|------------|------------|-0----------|
A|------------|------------|-0----------|------------|
E|------------|-0----------|------------|------------|


(Às vezes eu paro e fico a pensar...)

    D            G	  A7           D
E|-------2----|-------3----|-------0----|-------2----|
B|-----1---1--|-----3---3--|-----2---2--|-----3---3--|
G|---2-------2|---0-------0|---0-------0|---2-------2|
D|-0----------|------------|------------|-0----------|
A|------------|------------|-0----------|------------|
E|------------|-3----------|------------|------------|



E|---9-9-9-7-5-10----7-7-7-5-4-5|   (Duas vezes)
B|-5---------------5------------|



E|----14-14-14-14-16-14-12-11-12-----12-12-12-12-14-12-11-9-11---------
B|-12-----------------------------10-----------------------------------



E|---11-11-11-11-12-11-9-7-9-|-7-6-6-6-------(e na 2ª)-7-6-6-6---------
B|-9-------------------------|---------9-8-7-------------------9-11-12-



e|----------------------------------------------------------------------
B|-12-14-16-14-16-17--11-12-14-12-14-16--12-14-16-14-16-17--11-16-14-12-

Comentários 1

Composição: Pe. Zezinho
Esse não é o compositor? Avise-nos.
Contribuição: MagicHands
Exibir acordes »
publicidade
fechar