Time and time again

Papa Roach

 Papa Roach
Tom: F#
		
Drop-Db (Db, Ab, Db, Gb, Bb, Eb)


--------------------------------------|---------------------------------------
--------------------------------------|---------------------------------------
--------------------------------------|---------------------------------------
-4-4-4-6-6-6-7-7-7-9-9-9-11-11-11-14--|-14-14-11-14-14-11-14-14-11-14-14-11---
-4-4-4-6-6-6-7-7-7-9-9-9-11-11-11-14--|-14-14-11-14-14-11-14-14-11-14-14-11---
-4-4-4-6-6-6-7-7-7-9-9-9-11-11-11-14--|-14-14-11-14-14-11-14-14-11-14-14-11---

 Heavy Intro                            Transitions to Verse                  


----------|-------------------------------------------------------------------
----------|-------------------------------------------------------------------
----------|-------------------------------------------------------------------
-14-14-11-|-------------------------------------------------------------------
-14-14-11-|-------------------------------------------------------------------
-14-14-11-|-7-7-4-4-7-7-4-4-7-7-4-4-7-7-4-4-7-7-4-4-7-7-4-4-7-7-4-4-7-7-4-4---

            Verse (w/ wah)                                                    


------------------------------------------------------------------------------
------------------------------------------------------------------------------
------------------------------------------------------------------------------
------------------------------------------------------------------------------
---------4-4-7-7-4-4-7-7-4-4-7-7-4-4-7-7-4-4-7-7-4-4-7-7-4-4-7-7-4-4-7-7------
-7-7-4-4----------------------------------------------------------------------

                                                                              


------------|-----------------------------------------------------------------
------------|-----------------------------------------------------------------
------------|-------------------------------------------------8---------------
---6---7----|-8------11---15\--4--6-------8------11---15\--4--8---------------
-x-6-x-7----|-8------11---15\--4--6-------8------11---15\--4--6---------------
-x-6-x-7----|-8------11---15\--4--6-------8------11---15\--4--6---------------

 Pre Chorus  Chorus (TIME AND TIME AGAIN YOU'LL THINK ABOUT YOURSELF...)      


------------------------------------------------------------------------------
------------------------------------------------------------------------------
-------6-6-6-6--6-6-6-6--6-6-6-6-9-9-9-9--9-9-9-9-----------------------------
-12\---6-6-6-6--6-6-6-6--6-6-6-6-9-9-9-9--9-9-9-9--12\--0-0-0-0--0-0-0-0------
-12\---4-4-4-4--4-4-4-4--4-4-4-4-7-7-7-7--7-7-7-7--12\--0-0-0-0--0-0-0-0------
-12\---4-4-4-4--4-4-4-4--4-4-4-4-7-7-7-7--7-7-7-7--12\--0-0-0-0--0-0-0-0------

 Bridge (x2)                                                                  


------------------------------------|-----------------------------------------
------------------------------------|-----------------------------------------
------------------------------------|-----------------------------------------
-0-0-0-0-2-2-2-2--2-2-2-2--2-2-2-2--|-2-2-2-2-2-2-2-2-------------------------
-0-0-0-0-2-2-2-2--2-2-2-2--2-2-2-2--|-2-2-2-2-2-2-2-2-------------------------
-0-0-0-0-2-2-2-2--2-2-2-2--2-2-2-2--|-2-2-2-2-2-2-2-2-------------------------

                                      After 2nd Time (Palm Mute)              

Comentários 0

Composição: John Zaletel / Tiery-F
Esse não é o compositor? Avise-nos.
Exibir acordes »
publicidade
fechar