Timoneiro

Paulinho da Viola

 Paulinho da Viola Compositor: Pulinho da Viola
Tom: C
		
Intro: Am  A7  Dm  E

Refrão 2x:
       Am             E                      Am
Não sou eu quem me navega  quem me navega e o mar
  Am           Bm7(b5)        E       Am
É ele quem me carrega  como nem fosse levar

                        Am
E quanto mais remo mais rezo
   A7                 Dm
Pra nunca mais se acabar
                G7    G#dim        C
Essa viagem que faz o mar em torno mar
                   E
Meu velho um dia falou
                   Am
Com seu jeito de avisar
                      Bm7(b5)
Olha, o mar não tem cabelos
             E      Am
Que a gente possa agarrar

Refrão 2x:
       Am             E                      Am
Não sou eu quem me navega  quem me navega e o mar
  Am           Bm7(b5)        E       Am
É ele quem me carrega  como nem fosse levar

                     A7                   Dm
Timoneiro nunca fui que eu não sou de velejar
                 G7   G#dim               C
O leme da minha vida Deus e quem faz governar
                     E                        Am
E quando alguém me pergunta como se faz pra nadar
                  Bm7(b5)            E       Am
Explico que eu não navego quem me navega e o mar

Refrão 2x:
       Am             E                      Am
Não sou eu quem me navega  quem me navega e o mar
  Am           Bm7(b5)        E       Am
É ele quem me carrega  como nem fosse levar

                        A7                 Dm
A rede do meu destino parece a de um pescador
                G7 G#dim              C
Quando retorna vazia vem carregada de dor
                 E                     Am
Vivo num redemoinho Deus bem sabe o que faz
              Bm7(b5)     E
A onda que me carrega ela mesma
            Am
E quem me traz

Refrão 2x:
       Am             E                      Am
Não sou eu quem me navega  quem me navega e o mar
  Am           Bm7(b5)        E       Am
É ele quem me carrega  como nem fosse levar


Solo:

E|----7-7-7-6-9-6-9-6------ (x2)
B|-7-7---------------7-8-7-
G|------------------------7
D|-------------------------
A|-------------------------
E|-------------------------



E|--------------------------------------------------------------------------------------------------------
B|-7-7-7---7-8-7-------------7-5---5--7-7-7--7-8-7-----------7-5---5---7-7-7--7-8-7--------------7-5----4-
G|---------------6-6-6-6-6-6-----7-----------------6-6-6-6-6-----7-------------------6-6-6-6-6-6------6---
D|--------------------------------------------------------------------------------------------------------
A|--------------------------------------------------------------------------------------------------------
E|--------------------------------------------------------------------------------------------------------

52.260 exibições

Comentários 0

Composição: Cassiano Faleta / Lights / Paulinho da Viola / T. Lamendola
Esse não é o compositor? Avise-nos.
Contribuição: Shadow spike Correções: p_soares97 , cataclisma e mais 4 »
Exibir acordes »
publicidade
fechar