Cifra Club

Timoneiro

Paulinho da Viola

Cifra: Principal (violão e guitarra)
tom: Am
[Intro] Am7  A7  Dm  E7

[Refrão]

       Am7             Bm7(5-)        E7         Am7
Não sou eu quem me navega  quem me navega e o mar
  Am/G           D/F#          Dm/F E7    Am7
É ele quem me carrega  como nem fosse levar

       Am7             Bm7(5-)        E7         Am7
Não sou eu quem me navega  quem me navega e o mar
  Am/G           D/F#           Dm/F E7   Am7
É ele quem me carrega  como nem fosse levar

                        Am7
E quanto mais remo mais rezo
A7                 Dm7
Pra nunca mais se acabar
                G7    G#°        Am7
Essa viagem que faz o mar em torno mar
                   Bm7(5-)
Meu velho um dia falou
         E7          Am7
Com seu jeito de avisar
         Am/G             D/F#
Olha, o mar não tem cabelos
            Dm/F E7      Am7
Que a gente possa agarrar

[Refrão]

       Am7             Bm7(5-)       E7          Am7
Não sou eu quem me navega  quem me navega e o mar
  Am/G           D/F#           Dm/F E7       Am7
É ele quem me carrega  como nem fosse levar

       Am7             Bm7(5-)        E7        Am7
Não sou eu quem me navega  quem me navega e o mar
  Am/G           D/F#           Dm/F E7       Am7
É ele quem me carrega  como nem fosse levar

                     A7                   Dm7
Timoneiro nunca fui que eu não sou de velejar
                 G7   G#°                Am7
O leme da minha vida Deus e quem faz governar
                      Bm7(5-) E7               Am7
E quando alguém me pergunta como se faz pra nadar
    Am/G              D/F#        Dm/F  E7    Am7
Explico que eu não navego quem me navega e o mar

[Refrão]

       Am7             Bm7(5-)        E7         Am7
Não sou eu quem me navega  quem me navega e o mar
  Am/G           D/F#           Dm/F E7   Am7
É ele quem me carrega  como nem fosse levar
       Am7            Bm7(5-)        E7         Am7
Não sou eu quem me navega  quem me navega e o mar
  Am/G           D/F#           Dm/F E7   Am7
É ele quem me carrega  como nem fosse levar

                        A7                 Dm7
A rede do meu destino parece a de um pescador
                G7 G#°                Am7
Quando retorna vazia vem carregada de dor
                Bm7(5-)        E7         Am7
Vivo num redemoinho Deus bem sabe o que faz
    Am/G          D/F#    Dm/F E7
A onda que me carrega ela mesma
            Am7
E quem me traz

[Refrão]

       Am7             Bm7(5-)        E7        Am7
Não sou eu quem me navega  quem me navega e o mar
  Am/G           D/F#           Dm/F E7  Am7
É ele quem me carrega  como nem fosse levar


       Am7             Bm7(5-)        E7         Am7
Não sou eu quem me navega  quem me navega e o mar
  Am/G           D/F#           Dm/F E7   Am7
É ele quem me carrega  como nem fosse levar

[Solo]

E|----7-7-7-6-9-6-9-6------|
B|-7-7---------------7-8-7-|
G|------------------------7|
D|-------------------------|
A|-------------------------|
E|-------------------------|

E|----7-7-7-6-9-6-9-6------|
B|-7-7---------------7-8-7-|
G|------------------------7|
D|-------------------------|
A|-------------------------|
E|-------------------------|

E|--------------------------------------------------------------------------------------------------------|
B|-7-7-7---7-8-7-------------7-5---5--7-7-7--7-8-7-----------7-5---5---7-7-7--7-8-7--------------7-5----4-|
G|---------------6-6-6-6-6-6-----7-----------------6-6-6-6-6-----7-------------------6-6-6-6-6-6------6---|
D|--------------------------------------------------------------------------------------------------------|
A|--------------------------------------------------------------------------------------------------------|
E|--------------------------------------------------------------------------------------------------------|
Composição de Hermínio Bello de Carvalho / Paulinho da Viola
108.988 exibições
    • ½ Tom
    • Am
    • Bbm
    • Bm
    • Cm
    • C#m
    • Dm
    • Ebm
    • Em
    • Fm
    • F#m
    • Gm
    • G#m
  • Adicionar à lista

    0 comentários

    Ver todos os comentários

    Conseguiu tocar?

    9 Tocaram 3 Ainda não

    Grave um vídeo tocando Timoneiro e nos envie!

    00:00 / 00:00
    Outros vídeos desta música
    Repetir Qualidade Automático
    Outros vídeos desta música
    00:00 / 00:00
    Automático

    Cifra Club Pro

    Aproveite o Cifra Club com benefícios exclusivos e sem anúncios
    Cifra Club Pro
    Aproveite o Cifra Club com benefícios exclusivos e sem anúncios
    OK