Fama de Pegador

Pedro Paulo e Alex

 Pedro Paulo e Alex Compositor: Marinho Magalhães
Tom: G#(acordes na forma do tom G)
Capotraste na 1ª casa		
Intro: Em  C  G  D5(9)
ooooo oooooo

 solo intro.

--11--8----------------------
---------9--11--9---------9--
-------------------8--10-----
-----------------------------
-----------------------------
-----------------------------


solo sanfona


------8-8--9--8--------------------------------8-8--9--8----
----------------11--9--8--9--11--9--8--9-----------------11-
-1010--------------------------------------88---------------
------------------------------------------------------------
------------------------------------------------------------
------------------------------------------------------------


Em             C                 G
Os playba mete bala, se isola na balada
             D5(9)                         Em
Com whisky na taça pensa que pira a mulherada
              C                  G
Pagando de gatão, mais não pega nada
            D5(9)                     Em
E eu lá na humilde curtindo com altas gatas
                C                       G
Eu não sou duas caras, eu não tenho dinheiro
                  D5(9)                      Em
Fim de noite acompanhado eu vo pra casa, eu to faceiro
               C                           G
Eu não sou herdeiro, mais sou bom no converseiro
          D5(9)                      C  D5(9)
E mesmo a pé tem muita mulher no meu pé
                   Em
A noite inteiraaa

Refrão:
                   C                   G
Eu não tenho dodge ram, nem camaro amarelo
             D5(9)                     Em
Eu pego as gatinhas do xaveco e no chinelo
              C                  G
Sou conquistador, na balada um terror
               D5(9)               Em
Pedro paulo e alex tem fama de pegador
        C         G
Ooooooooo oooooooo
D5(9)           Em
Tem fama de pegador
        C         G    D5(9)    Em
Ooooooooo oooooooo
50.731 exibições

Comentários 0

Composição: Mario Magalhães
Esse não é o compositor? Avise-nos.
Contribuição: fabiopezao Correções: lukervetor e mais 1 »
Exibir acordes »
publicidade
fechar