Gotas de Amor

Planta e Raiz

 Planta e Raiz
Tom: C
		
Intro:

                F         G        Em        Am
E|-----7-8-7-5------8-7-8----7-5-7-----12-10-12---------------|
B|-5-8--------8-6---------8--------5--------------------------|
G|------------------------------------------------------------|
D|------------------------------------------------------------|
A|------------------------------------------------------------|
E|------------------------------------------------------------|


                F         G        Em        Am
E|-----7-8-7-5------8-7-8----7-5-7-----12-10-12---------------|
B|-5-8--------8-6---------8--------5--------------------------|
G|------------------------------------------------------------|
D|------------------------------------------------------------|
A|------------------------------------------------------------|
E|------------------------------------------------------------|


                F            G          E
E|-----7-8-7-5------8-7-8------5-7-5--------------------------|
B|-5-8--------8-6----------5-8------8-6-5---------------------|
G|------------------------------------------------------------|
D|------------------------------------------------------------|
A|------------------------------------------------------------|
E|------------------------------------------------------------|


 Am       G
Começar
     Em               Am
refletir com os pés na água
  G           Em
Libera toda mágoa
Am        G
Despertar
    Em             Am
Na areia depois da festa
       G               Em
Logo a lua é o que nos resta

       Am                Dm
Aquela tarde parecia nos avisar
        Em             Am
O que à noite poderia acontecer
                        Dm
Fechei os olhos então rezei com fé
   Em              Am
Em Deus é quem vai fazer

        F            G
Derrame o dom sobre nós
    F     G     Am
Abençoe a nossa voz
       F                 G
O céu mudou ta chovendo amor
   Am
Gotas de amor

         F            G
Derrame o dom sobre nós
    F     G     Am
Abençoe a nossa voz
       F                   G
O céu mudou ta chovendo amor
   Am
Gotas de amor
         F                G
O céu mudou ta chovendo amor
   Am
Gotas de amor

              G               Am
Deixa que o amor caia sobre nós
            F          G    Am
E deixa que o amor caia sobre nós

              G 		Am
Deixa que o amor caia sobre nós
               F          G    Am
E deixa que o amor caia sobre nós

(Intro)

      F              G
Derrame o dom sobre nós
    F     G     Am
Abençoe a nossa voz
       F                 G
O céu mudou ta chovendo amor
   Am
Gotas de amor

         F            G
Derrame o dom sobre nós
    F     G     Am
Abençoe a nossa voz
       F                   G
O céu mudou ta chovendo amor
   Am
Gotas de amor
         F                G
O céu mudou ta chovendo amor
   Am
Gotas de amor

            G               Am
Deixa que o amor caia sobre nós
            F          G    Am
E deixa que o amor caia sobre nós

              G 		Am
Deixa que o amor caia sobre nós
               F          G    Am
E deixa que o amor caia sobre nós

(Intro)

( C )
28.635 exibições

Comentários 0

Composição: Tato
Esse não é o compositor? Avise-nos.
Contribuição: O_Giovanelli Correções: Phael »
Exibir acordes »
publicidade
fechar