Calm Like a Bomb

Rage Against The Machine

 Rage Against The Machine
G-----0-2-----------0--0--------------------------------------------------------------------
D-2-4-----4-2-0-2-4------2-0------0-2-4--0---------0--2--2-------------0-----2----0--4--0--2-
A-----------------------------4-0----------4--2--4---------4--2--1---2---2--4---4------------
E------------------------------------------------------------------2-------------------------

G----------------------------------
D-----0-2-----------0-0------------
A-2-4-----4-2-0-2-4-----2-0-------0
E-----------------------------5-0--

intro. baixo!!!

Comentários 0

Composição: Anthony Armstrong / David Gedge / James Adkins / Jeff Carlisi / Leonardo Favio / Leroy Lovett / Manlio Sgalambro / Marc Herrero Ros
Esse não é o compositor? Avise-nos.
Contribuição: lukascosta
publicidade
fechar