S.O.S

Raul Seixas

 Raul Seixas
(baixo entra junto com a guitarra)
(as partes em que há solos o baixo permanece)

(intro)
    G        A        C        G    D
G |--------------------------------------|
D |--------------------------------------|
A |-------------------3-3-3-33------5555-|
E |-3-3-3-33-5-5-5-55----------3-3-------|

(versos)
    G        A        C        D
G |----------------------------------------|
D |----------------------------------------|
A |-------------------3-3-3-33-5-5-5-55----|
E |-3—3-3-33-5-5-5-55----------------------|

(refrão)
     C   D   Bm  Em  C   D   G  G7
G |-----------------------------------|
D |-----------------------------------|
A |--3-3-5-5-----7-7-3-3-5-5----------|
E |----------7-7-------------3-3-3-3--|

(pré-solo)
   Em  C   D   G
G |----------------|
D |----------------|
A |7-7-3-3-5-5-----|
E |------------3-3-|

(final)
    G        A        C        G   
G |---------------------------------------|
D |---------------------------------------|
A |-------------------3-3-3-33------------|
E |-3-3-3-33-5-5-5-55----------3-3-3-3-33-|

Comentários 0

Composição: Raul Seixas
Esse não é o compositor? Avise-nos.
Contribuição: lukas_moura
publicidade
fechar