Tom: A
		
(riff)

       A9            A9  D9
E|-------------0-|---------0-----|
B|---------0h2---|-----3----3----|
G|------2--------|--2--2-----2---| (4x)
D|------2--------|--2--0---------|
A|------0--------|--0------------|
E|---------------|---------------|


(riff tocado até o refrão)
(uma guitarra dedilha os acordes no fundo junto com o riff)

  A9          D9
Espero... não sei se tenho tempo
  A9        D9
Espero... poder estar atento
          A9            D9
Pra lhe ouvir falar as coisas que

(refrão - apenas os acordes com distorção)
         A9        E
Eu não entendo! (entendo)
     D9                     A9     E
Por que você me olha desse jeito
     D9                       A9    E
Como se você quisesse alguma coisa...
  D9                 F#m
Alguma coisa que eu tenho
   E
Alguma coisa que eu...

(verso 2 -  riff e os acordes dedilhados SEM distorção)
     A9       D9                A9
... Tenho que encontrar o meu caminho
            D9
Pra que eu possa compreender
  A9        D9
Sozinho as coisas que eu não...

  A9       E
Entendo! (entendo)
     D9                A9    E
Por que o amor é passageiro
     D9           A9     E
De viagens sem destino
      D9           F#m      E
Como filmes sem roteiro (roteiro, não)

(solo - distorção)

E|--------------------------------------------------
B|----10--10---9~-----------------------------------
G|-----------------9--11--11--11--9-----------------
D|--------------------------------------------------
A|--------------------------------------------------
E|--------------------------------------------------



E|--------------------------------------------------
B|----10--10---12-----9--10--9--7---5---------------
G|--------------------------------------------------
D|--------------------------------------------------
A|--------------------------------------------------
E|--------------------------------------------------



E|--------------------------------------------------
B|----10--10---9~-----------------9-----------------
G|-----------------9--11--11--11-------------------
D|--------------------------------------------------
A|--------------------------------------------------
E|--------------------------------------------------



E|-------------------------------------------------------------------------
B|----10--10-(12)---10 --(12)-12b-12b-12b-12b--12h--12b--12b-----10~~~~~--- 
G|-------------------------------------------------------------------------
D|-------------------------------------------------------------------------
A|-------------------------------------------------------------------------
E|-------------------------------------------------------------------------


A9      D9               A9
Eu... seria bem melhor assim
     D9                  A9
Se tivesse você junto a mim
        D9              A9
Talvez procurasse entender
    D9
As coisas que...

(refrão)
          A9       E
Eu não entendo! (entendo)
    D9                 A9     E
Por que o amor é passageiro
     D9           A9       E
De viagens sem destino
      D9           A9    E   D9
Como filmes sem roteiro (oh, oh, oh)

  A9    E        D9
Espero... não sei se tenho tempo, não
  A9   E     D9
Espero... poder estar atento
          A9      E       D9
Pra lhe ouvir falar das coisas que...

          A9    D9
Eu não entendo!


E|---------------------------------------------
B|---------------------------------------------
G|-------6-6-6/8/4-----------------------------
D|---------------------------------------------    (deixa soar)
A|-------4-4-4/6/2-----------------------------
E|---------------------------------------------


  A9   D9
Espero


E|---------------------------------------------
B|---------------------------------------------
G|-------6-6-6/8/4-----------------------------
D|---------------------------------------------  (deixa soar até o final da música)
A|-------4-4-4/6/2-----------------------------
E|---------------------------------------------


  A9    D9
Eu espero

Comentários 3

  • Rafael Rafael: Postado em 10/01/2012 15:10

    Video aula o caralho! Essa musica é muito facil!

  • jvalcarte jvalcarte: Postado em 15/12/2011 21:01

    Video aulaaa! Essa merece!

  • sarah sarah: Postado em 28/03/2011 13:33

    video aula! POR FAVOR [:

Composição: Sabe quem é o compositor? Envie pra gente. Contribuição: Nimbus Correções: Carlos e mais 2 »
Exibir acordes »
publicidade
fechar