A força do amor

Rick e Renner

 Rick e Renner
Tom: E
		

 Intro: A  E  A  E
E|-12-11-11h12h11--------------------------------------|
B|---------------12-------------10-9-9h10h9------------|
G|--------------------11-----9--------------9----------|
D|----------------------------------------------9---7--|
A|-----------------------------------------------------|
E|-----------------------------------------------------|



E|-12-11-11h12h11---------------------------------------|
B|-------------- 12-----------14-12-10-9----------------|
G|------------------11---9------------------------------|
D|------------------------------------------------------|
A|------------------------------------------------------|
E|------------------------------------------------------|


E                               B
Abriu minha visão o jeito que o amor
E                                B
Tocando o pé no chão alcança as estrelas
A                         E
Tem poder de mover as montanhas
        B
Quando quer acontecer
              E
Derruba as barreiras
A                          E
Para o amor não existem fronteiras
      B
Tem a presa quando quer
        A/B
Não tem hora de chegar
            E
E não vai embora
E
Chamou minha atenção
           B
A força do amor
E
Que é livre pra voar
           B
Durar para sempre
A
Quer voar
                 E
Navegar outros mares
    B
Dá um tempo sem se ver
            E
Mas não se separa
   A
A saudade vem
                     E
Quando vê não tem volta
       B
Mesmo quando eu quis morrer
   A/B
De ciúme de você
             E
Você me fez falta

Refrão:
B                        A
Sei, não é questão de aceitar
B                       C#m
Sim, não sou mais um a negar
                   A
A gente não pode impedir
                      F#
Se a vida cansou de ensinar
                      A      B
Sei que o amor nos dá asa
                      E
Mas volta pra casa

( A  E  A  E )

E                               B
Abriu minha visão o jeito que o amor
E                                 B
Tocando o pé no chão alcança as estrelas
A                         E                    B
Tem poder de mover as montanhas  quando quer acontecer
                 E        A                        E
Derruba as barreiras para o amor não existem fronteiras
        B                             A/B
Tem a presa quando quer   Não tem hora de chegar
           E
E não vai embora

E|-12-11-11h12h11--------------------------------------|
B|-----------------12------------10-9-9h10h9-----------|
G|--------------------11-----9---------------9---------|
D|----------------------------------------------9---7--|
A|-----------------------------------------------------|
E|-----------------------------------------------------|



E|-12-11-11h12h11---------------------------------------|
B|----------------12----------14-12-10-9----------------|
G|------------------11---9------------------------------|
D|------------------------------------------------------|
A|------------------------------------------------------|
E|------------------------------------------------------|


B                      A
Sei, não é questão de aceitar
B                      C#m
Sim, não sou mais um a negar
                       A                          F#
A gente não pode impedir   Se a vida cansou de ensinar
                     A    B                 E
Sei que o amor nos dá asa    Mas volta pra casa
B                        A      B                             C#m
Sei, não é questão de aceitar    Sim, não há nada que eu possa fazer
                    A                             F#
A gente não pode impedir   Se a vida cansou de ensinar
                      A  B                  E   A
Sei que o amor nos dá asa    Mas volta pra casa
               E
Mas volta pra casa...
127.292 exibições

Comentários 1

Composição: Cleberson Horsth e Ronaldo Bastos
Esse não é o compositor? Avise-nos.
Contribuição: igornauta Correções: victor , Matewsv e mais 3 »
Consegui tocarAinda não conseguiram tocar essa música. Seja o primeiro!
    Não consegui tocar
    Exibir acordes »
    publicidade
    fechar