Escolta de Vagalumes

Rick e Renner

 Rick e Renner
Tom: A
		
(intro) A D E7 A  A7 D E7 A A9

(solo intro)


E|-12-----------10---------9------9--9/12---12/14--14------------------------------
B|-14h15p14-----12h14p12---10----10-10/14---14/15--15h17p15--15-15--14-14--12--9---
G|-----------------------------------------------------------14-14--14-14--13--9---
D|---------------------------------------------------------------------------------
A|---------------------------------------------------------------------------------
E|---------------------------------------------------------------------------------



E|-7-7---10-10---12-12--------------------------------9-9---12-12--14-14~----------
B|-9-9---12-12---15-14h15p14---14-14--12-12--10-10---10-10--14-14--15-15~----------
G|-----------------------------14-14--13-13--11-11---------------------------------
D|---------------------------------------------------------------------------------
A|---------------------------------------------------------------------------------
E|---------------------------------------------------------------------------------



E|-14-14---16-16-------------------9h10p9p7---5~-----------------------------------
B|-15-15---14-14--------------14--------------5~-----------------------------------
G|----------------18-16-13-16-14---------------------------------------------------
D|---------------------------------------------------------------------------------
A|---------------------------------------------------------------------------------
E|---------------------------------------------------------------------------------


   A	             E7          F#m
Voltando pra minha terra eu renasci
    D                  A7                 D
Nos anos que fiquei distante acho que morri
    E7                D                   A
Morri de saudade dos pais irmãos e companheiros
                              E7
Ao cair da tarde no velho terreiro
          D                       A
Agente cantava as mais lindas canções

  E7               D            A
Viola afinada e na voz dueto perfeito
                               E7
Longe eu não cantava doia meu peito
           D    ( E7 )    A
Na cidade grande só tive ilusões

(estribilho)

       E7                     F#m
Mas voltei, mas voltei, eu voltei
  E7               D                A
E ao passar na porteira a mata o perfume
                           E7
Eu fui escoltado pelos vagalumes
             D               A
Pois era uma linda noite de luar

       E7                     F#m
Mas chorei, mas chorei, eu chorei
   E7                    D                  A
Ao ver meus pais meus irmãos vindo ao meu encontro
                            E7
A felicidade misturou meu pranto
                D        ( E7 )  A
Com o orvalho da noite deste meu lugar

(intro) A D E7 A  A7 D E7 A A9

   A	             E7                F#m
Ganhei dinheiro lá fora mas foi tudo em vão
   D              A7                 D
A natureza é meu mundo, eu sou o sertão
    E7                 D                 A
Correr pelos campos floridos feito um menino
                            E7
Esquecer as magoas e os desatinos
              D              A
Que a vida lá fora me proporcionou

  E7            D             A
Ouvir sabiá cantando e a juriti
                             E7
E a felicidade de um bem-ti-vi
            D    ( E7 )    A
Que parece dizer meu amigo voltou

(estribilho)
Texto Colunas
Alterar tom ½ tom ½ tom
afinação acordes na letra esconder tabs mais »
132.867 exibições

Comentários (0)

Composição: Luiz Carlos Garcia / Zezety
Esse não é o compositor? Avise-nos.
Contribuição: Fabinho Correções: je nascimento »
  1. Tudo Que Você Quiser - Luan Santana Manteve-se 6.122 exibições
  2. Lepo Lepo - Psirico Manteve-se 4.394 exibições
  3. Mozão - Lucas Lucco Manteve-se 4.201 exibições
  4. Logo Eu - Jorge e Mateus Manteve-se 4.020 exibições
  5. Pra Você - Onze:20 Manteve-se 4.019 exibições
  6. Gaveta - Fernando e Sorocaba Manteve-se 3.769 exibições
  7. Só Os Loucos Sabem - Charlie Brown Jr. Manteve-se 3.071 exibições
  8. Tempo Perdido - Legião Urbana Manteve-se 2.714 exibições
  9. Fui Fiel - Gusttavo Lima Manteve-se 2.713 exibições
  10. Domingo de Manha - Marcos e Belutti Manteve-se 2.289 exibições
  1. Jorge e Mateus- Manteve-se 23.884 exibições
  2. Legião Urbana- Manteve-se 21.696 exibições
  3. Luan Santana- Manteve-se 17.411 exibições
  4. Charlie Brown Jr.- Manteve-se 17.352 exibições
  5. Fernandinho- Manteve-se 14.841 exibições
  6. Católicas- Manteve-se 11.201 exibições
  7. Thalles Roberto- Manteve-se 11.085 exibições
  8. Gusttavo Lima- Manteve-se 11.009 exibições
  9. Victor e Leo- Manteve-se 10.721 exibições
  10. Bruno e Marrone- Manteve-se 10.310 exibições
Exibir acordes »

Cifras e tabs

Fórum Cifra Club

Aprenda

Cifra Club News

Mais Serviços Cifra Club ID

Studio Sol

©1996 - 2014 Cifra Club · o primeiro, maior e mais acessado do Brasil · 329 mil músicas · 6.0 milhões pessoas cadastradas

publicidade
fechar