Samba de Um Minuto

Roberta Sá

 Roberta Sá
Tom: A#
		

E|------------------|3
B|--3-------------4-|V
G|--3-------------5-|E
D|--3-------------4-|Z
A|----1-1-1-1-0--5--|E
E|-3----------------|S



E|--------------------------|
B|--3-----------------------|
G|--3-----------------------|
D|--3-----------1p0---------|
A|----1-1-1-1-0-----3p1p0---|
E|-3----------------------3-|


Gm 			       Cm6
Devagar, esquece o tempo lá de fora
Am7(b5)   Eb7(9)        D7(b9)       Gm
Devagar,      esqueça a rima que for cara
F7		       Bb6
Escute o que vou lhe dizer
F7                   Bb6 
Um minuto de sua atenção
          Cm7              D7(b9)
Com minha dor não se brinca
 	     Gm  
Já disse que não
          Cm7 	           D7(b9)
Com minha dor não se brinca
             Gm
Já disse que não
                 F7
Devagar com o andor
               Eb7(9)
Teu santo é de barro
            D7(b9)
E a fonte secou
Cm6    D7(b9)        Gm
Já não tens tanta verdade pra dizer
Eb7(9) Eb/Db         D7
Nem tampouco mais maldade pra fazer
F7		   Bb6
E se a dor é de saudade
Am7(b5) D7(b9)         Gm  G7
E a sau - dade é de matar
Cm7    Am7(b5) D7 Gm    Gm/F
Em meu peito a novidade
Eb7(9) D7(b9)      Gm
Vai enfim me libertar
30.630 exibições

Comentários 0

Composição: Enrique Ramirez / K. Cobain
Esse não é o compositor? Avise-nos.
Contribuição: thai Correções: rodrigues »
Exibir acordes »
publicidade
fechar